Song name
# A B C D E F G H I J K L M N O P Q R S T U V W X Y Z

Pete Murray - So Beautiful tab

This is How Pete plays it.  Great Song.  Enjoy:)


-----------------------------------------------------------------------------
So Beautiful  Pete Murray
-----------------------------------------------------------------------------
Tabbed by: Madds					                 Capo: 3rd Fret
Email: madzda_7@hotmail.com
Tuning: Standard EADGBe

e|--------3--------------3/x----------------3---------------3-------------V
B|--------3---------------6-----------------6---------------3-------------E
G|--------3---------------3-----------------3---------------7-------------R
D|--------5---------------5-----------------5---------------5-------------S
A|--------5---------------3-----------------6---------------3-------------E
E|--------3---------------6-----------------x---------------6-------------1
          Em           B 6sus2	       C add9	           Bb9 

e|--------3--------------3/x----------------3---------------3-------------V
B|--------3---------------6-----------------6---------------3-------------E
G|--------3---------------3-----------------3---------------7-------------R
D|--------5---------------5-----------------5---------------5-------------S
A|--------5---------------3-----------------6---------------3-------------E
E|--------3---------------6-----------------x---------------6-------------2
          Em            B 6sus2	       C add9	           Bb9

e|------------3------------3------------4-----------3----------3----------C
B|------------3------------4------------5-----------4----------6----------H
G|------------3------------5------------4-----------3----------3----------O
D|------------5------------5------------3-----------5----------7----------R
A|------------5------------3------------x-----------6----------8----------U
E|------------3------------3------------x-----------x----------x----------S
	       Em	      Am	     D	          C	       Gm9

e|--------3--------------3/x----------------3---------------3-------------V
B|--------3---------------6-----------------6---------------3-------------E
G|--------3---------------3-----------------3---------------7-------------R
D|--------5---------------5-----------------5---------------5-------------S
A|--------5---------------3-----------------6---------------3-------------E
E|--------3---------------6-----------------x---------------6-------------3
          Em            B 6sus2	       C add9	           Bb9


*****************************************************************************


| /		Slide up		
| p   		Pull-off		
| x   		Mute note	
| br  		Bend release	
| \   		Slide down	
| ~   		Vibrato		
| b   		Bend	
| pbr 		Pre-bend release
| h   		Hammer-on		
| +   		Harmonic	
| pb  		Pre-bend	
| brb 		Bend release bend
Tap to rate this tab
 
# A B C D E F G H I J K L M N O P Q R S T U V W X Y Z