Pete Murray - Always A Winner chords

----------------------------------------------------------------------------
			     ALWAYS A WINNER - Pete Murray
----------------------------------------------------------------------------
MY FIRST SUBMISSION - I'm pretty sure it's correct - Transcribed by ear

Tabbed by: Shannyn
Email: shannyn_d_oliver@yahoo.com.au

Tuning: STANDARD EBGDAE

POWER CHORDS THROUGHOUT VERSE AND CHORUS (Listen for strumming pattern)
G, A#, F, G

RIFF that plays throughout the song is just using a Cmajor Scale

Part 1 

e|-------------------------------------------------|
B|-------------------------------------------------|
G|-------------------------------------------------|
D|--------3--5--3----------------------------------|
A|--3--5-----------5--3-----3----------------------|
E|-----------------------6-----6--3----------------|

Part 2

e|-------------------------------------------------|
B|-------------------------------------------------|
G|-------------------------------------------------|
D|--------3--5--3----------------------------------|
A|--3--5-----------5--3-----3----------------------|
E|-----------------------6-----6-------------------|

Lyrics:

Hey, see it my way
If we all had a dream
We could bust this place
And we could take it down
Like a runaway train
I bet you could make me smile
Like Iím going insane
So pick your style
And pick your place
And we can burn like the summer
With amazing grace
Gonna win now
Cause I know you are
You are my one true love
And you got me this far

[Chorus:]
Always a winner,
Yeah youíre always a winner for me
Always a winner,
Yeah youíre always a winner for me

With my best friend
I put my best foot forward
Gonna dry you out like a winter time wind
And I wonít stop now, no Iíll keep coming
Better knock me down so I canít get up
This time weíll see the last time
Oh youíre always a winner
Donít you burn yourself off

[Chorus:]

Pick me up, donít bring me down
Take me right now to the other side of town
Thatís where I wanna be, you and me alone
Weíve gotta build it right up so we can make it our home
Beauty man, there ainít no beauty man seen
Iím gonna break it right now
Youíre a winner to me

[Chorus:]
 
Tap to rate this tab
 
# A B C D E F G H I J K L M N O P Q R S T U V W X Y Z