Pete Murray - Always A Winner tab

#----------------------------------PLEASE NOTE---------------------------------#
#This file is the author's own work and represents their interpretation of the #
#song. You may only use this file for private study, scholarship, or research. #
#------------------------------------------------------------------------------#


Song: Always A Winner
Artist: Pete Murray

Submitted by Jimmy Lynch

Rhythm

G
3 5 x - - -

Bb
6 8 x  - - -

F
1 3 x  - - -

Fill
(Played when you arrive at F)

e --------------------------------------|
B --------------------------------------|
G --------------------------------------|
D --x--/--x--x--\--x--x--/--x--x--\--x--|
A --3--/--5--5--\--3--3--/--5--5--\--3--|
E --1--/--3--3--\--1--1--/--3--3--\--1--|

(0:23)

e ------------------|
B ------------------|
G ------------------|
D --12--15--15--12--|
A --10--13--12--10--|
E ------------------|

..or you can play..

e ------------------|
B ------------------|
G ---7--10--10--7---|
D ---5---8---7--5---|
A ------------------|
E ------------------|

Fill (0:31)

e ---------------------------------------|
B ---------------------------------------|
G ---------------------------------------|
D ---------------8--8h10b--10p8--8p7-----|
A --10--10p8h10-----------------------8--|
E ---------------------------------------|


e --------------------------|
B --------------------------|
G --------------------------|
D --------------------------|
A --8/10--10\8--8/10--10\8--|
E --------------------------|

Fill (0:38)

e ------------------------------------------------------|
B ------------------------------------------------------|
G ------------------------------------------------------|
D ----------10p8h10--10--10b12--10b12--10p8--10--8------|
A --10--10------------------------------------------10--|
E ------------------------------------------------------|

Melody
(First appears at 0:45)

e----------------------------------|
B----------------------------------|
G----------------------------------|
D-------3--5--3--------------------|
A--3--5----------5p3\1--3--1-------|
E-------------------------------3--|

e ---------------------------------|
B ---------------------------------|
G ---------------------------------|
D -------3--5--3-------------------|
A --3--5----------5p3\1--3--1------|
E ---------------------------------|

e --------------------------------------|
B --------------------------------------|
G --------------------------------------|
D --x--/--x--x--\--x--x--/--x--x--\--x--|
A --3--/--5--5--\--3--3--/--5--5--\--3--|
E --3--/--3--5--\--1--1--/--3--3--\--1--|

Solo (2:41)

e ------------------------------------------|
B ------------------------------------------|
G -10/12b----------12b------------------10--|
D -10/12b----------12b----------10--12------|
A ---------13--10-------13--13--------------|
E ------------------------------------------|

e -------------------------|
B -------------------------|
G ------10--12--12--12p10--|
D --12---------------------|
A -------------------------|
E -------------------------|

e ----------------------------------|
B ----------------------------------|
G --------------10--------------10--|
D --12--10--12------12--10--12------|
A ----------------------------------|
E ----------------------------------|

e -------------------------|
B -------------------------|
G -------------------------|
D --12--10--12--10---------|
A ------------------13p10--|
E -------------------------|

Fill (2:56)

e -----------5--|
B -----3--------|
G --------5-----|
D --3-----------|
A --------------|
E --------------|        x2

e -----------3--|
B -----5--------|
G --------4-----|
D --3-----------|
A --------------|
E --------------|        x1

e -----------5--|
B -----3--------|
G --------5-----|
D --3-----------|
A --------------|
E --------------|        x3

e -----------3--|
B -----5--------|
G --------4-----|
D --3-----------|
A --------------|
E --------------|        x1

e --------------------------------------|
B --------------------------------------|
G --------------------------------------|
D --x--/--x--x--\--x--x--/--x--x--\--x--|
A --3--/--5--5--\--3--3--/--5--5--\--3--|
E --3--/--3--5--\--1--1--/--3--3--\--1--|

Hope this is helpful too :) Also check out my video tutorials for this song on YouTube.

Please email any questions or feedback to jimmy.lynch@live.com.au
Tap to rate this tab
 
# A B C D E F G H I J K L M N O P Q R S T U V W X Y Z