Song name
# A B C D E F G H I J K L M N O P Q R S T U V W X Y Z

Pete Murray - Always A Winner tab

Artist: Pete Murray
Song Title: Always a Winner

INTRO: figure out strumming patter.

e|----------------||
B|----------------||
G|----------------||
D|--5--8--3--3s5--||
A|--5--8--3--3s5--||
E|--3--6--1--1s3--||

RIFF: 

e|---------------------------||
B|---------------------------||
G|---------------------------|| repeat a second time without the last 3 on the E string.
D|------3-5-3~---------------||
A|--3-5--------5-3---3-------||
E|-----------------6---6-3---||
Tap to rate this tab
 
# A B C D E F G H I J K L M N O P Q R S T U V W X Y Z