Song name
# A B C D E F G H I J K L M N O P Q R S T U V W X Y Z

Pete Murray - Bail Me Out tab

Help us improve GuitareTab! Take a short survey!
Bail Me Out by Pete Murray
Tabbed by: Chris.R

Intro
E|----------------------------|  Strum as you would a chord
B|--1---111111111--1-1-333----|  
G|--0h2-222022220--0-0-000----|
D|--0h2-222022220--2-2-444----|X4
A|-----------------3-3-555--- |
E|----------------------------|

Verse (Same as Intro)
            Two weeks away    From reality       And I was beginning 
E|----------------------------------------------------------|
B|--1---111111111------1-1-3333------1---111111111--1-1-333-|  
G|--0h2-222022220------0-0-0000------0h2-222022220--0-0-000-|
D|--0h2-222022220------2-2-4444------0h2-222022220--2-2-444-|
A|---------------------3-3-5555---------------------3-3-555-|
E|----------------------------------------------------------|

         to feel                      I couldn't be my self
E|------------------------------------------------------------|
B|--1---111111111------1-1-3333------1---111111111--1-1-----3-|last strum 
G|--0h2-222022220------0-0-0000------0h2-222022220--0-0-----0-| let ring
D|--0h2-222022220------2-2-4444------0h2-222022220--2-2-----4-|
A|---------------------3-3-5555---------------------3-3-----5-|
E|------------------------------------------------------------|

Pre- Chorus
  ...Knowin I'm Prob'ly going to die-
E|-------------------------------------------|
B|------1---3-----1------3-------------------|
G|------0---0-----0------0-------------------|X2 on last strum pull off
D|------2---4-----2------4-------------------|
A|------3---5-----3------5-------------------|
E|-------------------------------------------|
  
Chorus
  Oh here we go again ....
E|------------------------------------------|
B|--1----1---3----1--0---1------------------|
G|--2----0---0----0--0---2------------------|X4
D|--2----2---4----2--2---2------------------|
A|-------3---5----3--2----------------------|
E|-------------------0----------------------|

Bridge
E|-------------------------| 				
B|--1---111111111--1-1-3---|  
G|--0h2-222022220--0-0-0---|
D|--0h2-222022220--2-2-4---|
A|-----------------3-3-5---|
E|-------------------------|

Solo
Key: 
b=bend
r=release
h=hammer on
p=pull off 
s=slide
E |------------------------------------------|
B |--------7----7---9b----------7----7---9b--|
G |--------7----7---9b----------7----7---9b--|
D |----7h9---9----9---------7h9---9----9-----|
A |-7h9------------------7h9-----------------|
E |------------------------------------------|

E |--------------------------------------------------------------|
B |------10h12-12--12-12p10s9b-----------------------------------|
G |-9s11----------------------9---7h9p7-6h7p6-------7------------|
D |-------------------------------------------------7-7h9---9----|
A |--------------------------------------------------------------|
E |--------------------------------------------------------------|

E |---------------------------|
B |-----------------10--------|
G |---------------9b--r9 7h9--| on the bend, hold while 
D |-----7---7h9---------------| playing 10 on B, then release.
A |-7h9---9-------------------|
E |---------------------------|

Chorus
  Oh here we go again ....
E|------------------------------------------|
B|--1----1---3----1--0---1------------------|
G|--2----0---0----0--0---2------------------|X8
D|--2----2---4----2--2---2------------------|
A|-------3---5----3--2----------------------|
E|-------------------0----------------------|
Related for Bail Me Out tab