Song name
# A B C D E F G H I J K L M N O P Q R S T U V W X Y Z

Pete Murray - Ten Ft Tall tab

Hey this is my first tab. This tab is played during the paino riff. I think its right.. i litsened 2 the song ova agen n ova agen n this is wat i came up with..


e|---------------------------------------------------------------|
B|----------------3----------------------------------------------|
G|---5-5-4-5--5-5---5--------------------------------------------|
D|---------------------------------------------------------------|
A|---------------------------------------------------------------|
E|---------------------------------------------------------------|


reapeat throughout piano riff


Then at the end this is played:

e|---------------------------------------------------------------|
B|----------------3----------------------------------------------|
G|---5-5-4-5--5-5---5--------------------------------------------|
D|---------------------3-2---------------------------------------|
A|---------------------------------------------------------------|
E|---------------------------------------------------------------|



if you have any commentz or questionz email me at.. jessbh_rules379@hotmail.com

enjoy!!
Tap to rate this tab
 
# A B C D E F G H I J K L M N O P Q R S T U V W X Y Z