Song name
# A B C D E F G H I J K L M N O P Q R S T U V W X Y Z

Pete Murray - Fly With You tab

Hi All, this is my first tab so bear with me =]

this is the lead guitar part to Fly With You by Pete Murray
I'm not sure if its 100% accurate but its sounds pretty cool.

Capo Fret 1

Verse/Main Riff
e|----------------------------|
B|----------------------------|
G|----------------------------|
D|--------------------------5-|
A|--3/5-5-------3-------3/5---|
E|--------0h3h5---5-3-3-------|  repeat throughout verses

Chorus
e|---2-----2------3-----3-----|
b|-------3---3--------3---3---|
g|----------------------------|
d|----------------------------|
a|----------------------------|
E|----------------------------|  played through chorus

The Solo is played on a slide guitar and since i have no experience with these im not gonna try to tab it.

Enjoy!
Tap to rate this tab
# A B C D E F G H I J K L M N O P Q R S T U V W X Y Z