Song name
# A B C D E F G H I J K L M N O P Q R S T U V W X Y Z

Pete Murray - Opportunity tab

OPPORTUNITY – Pete Murray
Transcribed by Alec Sara

Intro/Verse
e|---------------------------------------------|
b|---------------------------------------------|
g|---0-0-0----0--0-0-0---0--0-0-0---0--0-0-0---|
d|---0-0-0--0-2--2-2-2-0-0--0-0-0-0-2--2-2-2-0-|
a|---2-2-2--0-2--2-2-2-0-2--2-2-2-0-2--2-2-2-2-|
E|-3-3-3-3--2-0--0-0-0-2-3--3-3-3-2-0--0-0-0---|

e|------------------------------------------|
b|---------1--1-1-1--------------1--1-1-1---|
g|-0-0-0-0-2--2-2-2-0-0--0-0-0-0-2--2-2-2---|
d|-2-2-2-0-2--2-2-2-0-2--2-2-2-0-2--2-2-2---|
a|-3-3-3-2-0--0-0-0-2-3--3-3-3-2-0--0-0-0-0-|
E|----------------------------------------2-| repeat for verse

Chorus
G     D         Am
 Hold on now your exits here,
     C               G
It’s waiting just for you,
       D                 Am
Don’t pause too long its fading now,
    C             G     D
Its ending all too sooooon,
       Am       C
You’ll see.          (Repeat from “sooooon” and straight back into verse)

Solo for guitar (done on piano on the song but if ur trying to impress people and u 
have a piano handy then u can use ur trusty guitar)
e|-------|------------------|------------------|-----------------------|
B|--0----|------------------|--0--------0------|----------3--------0---|
G|-----2-|--0-------0-----2-|----------------2-|---0-------------------|
D|-------|------------------|------------------|-----------------------|
A|-------|------------------|------------------|-----------------------|
E|-------|------------------|------------------|-----------------------|

e|---------------|-----------------|0----0-----------------------------|
B|-1-------1-----|--1------1---3---|1----1---3---1---1---3-0-----------|
G|-------------4-|--2------2---4---|---------4---2---2---4-0-----------|
D|---------------|-----------------|-----------------------------------|
A|---------------|-----------------|-----------------------------------|
E|---------------|-----------------|-----------------------------------|
Back to chorus


Lyrics
so it goes another lonely day
Your savin time but your miles away
Your flowers drownin in some bitter tea
You’re seein lost opportunity

Find your mirror go and look inside
And see the talent you always hide
Don't go kid yourself well not today
Your satisfaction's not to far away

Hold on now your exits here
It's waiting just for you
Don't pause too long
It's fading now
It's ending all too soon you'll see

Soon you'll see

Your coffee's warm but your milk is sour
Your life is short but your here to flower
Dream yourself along another day
Never miss opportunity

Don't be scared of what you cannot see
Your only fear is possibility
Never wonder what the hell went wrong
Your second chance may never come along

Hold on now your exits here
It's waiting just for you
Don't pause too long
It's fading now
It's ending all too soon you'll see

Soon you'll see

(Solo)

Hold on now your exits here
It's waiting just for you
Don't pause too long
It's fading now
It's ending all too soon you'll see

Soon you'll see [x5]

Song Structure
Intro
Verse
Chorus
Verse
Chorus
Solo
Chorus


Thanks to the other guys who submitted tabs but they were all wrong in their own little 
so I thought id fix them for ya 
I know most people would be able to figure out the mistakes but theres some musical 
out there like we all once were and this hopefully will make things a lot easier

Any problems email me :D
Tap to rate this tab
# A B C D E F G H I J K L M N O P Q R S T U V W X Y Z