Song name
# A B C D E F G H I J K L M N O P Q R S T U V W X Y Z

Pete Murray - Lost Soul tab

-------------------------------------------------------------------------------
			     Lost Soul - Pete Murray
-------------------------------------------------------------------------------
Tabbed by: Briggz
Email:Brycetaylor22@hotmail.com

Tuning: EADGBE

Capo on 3rd fret
All notes relative to capo. The "x"s denote a subtle slap over the top two strings 
with the your picking hand. 
                                  
VERSE
e|---------------------------------------------------------------------------|
B|----1---0----0-------1---0----0-------1---0----0------1--3--1p0------------|
G|----0---0------------0---0------------0---0-----------0--0--0--------------|
D|-----------2---0------------2---0------------2---0--------------0----------|  X 3
A|--0---x------------0---x------------0---x-----------0----------------------|
E|------x----------------x----------------x----------------------------------|

CHORUS
e|---------------------------------------------------------------------------|
B|---1p0---3---------------0*------------------------------------------------|
G|---0-----0---0-------------------------------------------------------------|
D|-----------0----5--4--2----0*----------------------------------------------| X 4
A|-0-----0--------0--0--0----------------------------------------------------|
E|---------------------------------------------------------------------------|

 *Leave these two notes off on the 4th time. This only applies to chorus 1.

VERSE 2
e|---------------------------------------------------------------------------|
B|----1---0----0-------1---0----0-------1---0----0------1--3--1p0------------|
G|----0---0------------0---0------------0---0-----------0--0--0--------------|
D|-----------2---0------------2---0------------2---0--------------0----------|  X 3
A|--0---x------------0---x------------0---x-----------0----------------------|
E|------x----------------x----------------x----------------------------------|

CHORUS 2
e|---------------------------------------------------------------------------|
B|---1p0---3---------------0-------------------------------------------------|
G|---0-----0---0-------------------------------------------------------------|
D|-----------0----5--4--2----0-----------------------------------------------| X 4
A|-0-----0--------0--0--0----------------------------------------------------|
E|---------------------------------------------------------------------------|

BRIDGE

e|---------------------------------------------------------------------------|
B|----1---0----0-------1---0----0-------1---0----0------1--3--1p0------------|
G|----0---0------------0---0------------0---0-----------0--0--0--------------|
D|-----------2---0------------2---0------------2---0--------------0----------|  X 1
A|--0---x------------0---x------------0---x-----------0----------------------|
E|------x----------------x----------------x----------------------------------|

  
e|---------------------------------------------------------------------------|
B|---1p0------3---------------0----------------------------------------------|
G|---0------0-----0----------------------------------------------------------|
D|--------------0----5--4--2----0--------------------------------------------| X 4
A|-0------0----------0--0--0-------------------------------------------------|
E|---------------------------------------------------------------------------|
  (This is just a variation of the chorus) 

Then - Verse  X 3
     - Chorus X 4 
     - Verse  x 1
End on

e|-------------------------------------------|
B|---1p0---3---------------------------------|
G|---0-----0---0-----------------------------|
D|-----------0----5--4--2~~------------------| X 1
A|-0-----0--------0--0--0~~------------------|
E|-------------------------------------------|
                         ~ Let ring till fade

===============================================================================
Tap to rate this tab
 
# A B C D E F G H I J K L M N O P Q R S T U V W X Y Z