Song name
# A B C D E F G H I J K L M N O P Q R S T U V W X Y Z

Pete Murray - Georges Helper tab

Hey how u doing everyone? I saw that nobody had submitted this but this is the bass
(that can be played on the guitar using the bottom (E) string). It sounds very much the same
done all by ear and practice. Listen to the song obviously and pick up on where to slide 
or down on the string. Good luck!!!
I love Pete Murray and I think he's a gun! Thanks Peter

Legend

Slide up = >
Slide down = <

    ----------------------------------------------|
    ----------------------------------------------|
    ----------------------------------------------|
    ----------------------------------------------|
    ----------------------------------------------|
    ---12--12--12--12--<--8--9--10--10--10--10----|

    ----------------------------------------------|
    ----------------------------------------------|
    ----------------------------------------------|
    ----------------------------------------------|
    ----------------------------------------------|
    ---10--<---4---5---6---7---7---0---1---2---3--|

    ----------------------------------------------|
    ----------------------------------------------|
    ----------------------------------------------|
    ----------------------------------------------|
    ----------------------------------------------|
    ---3---3---3---3--->---5---6---7--->---12--12-|

    ----------------------------------------------|
    ----------------------------------------------|
    ----------------------------------------------|
    ----------------------------------------------|
    ----------------------------------------------|
    --12--12---<---8---9---10---10---10---10------|

    ----------------------------------------------|
    ----------------------------------------------|
    ----------------------------------------------|
    ----------------------------------------------|
    ----------------------------------------------|
    --<---4---5---6---7---7---0---1---2---3-------|
Tap to rate this tab
# A B C D E F G H I J K L M N O P Q R S T U V W X Y Z