Song name
# A B C D E F G H I J K L M N O P Q R S T U V W X Y Z

Pete Schmidt - Dreams tab

  Dreams
  By
  Tv on the Radio

Lead Guitar
===========

Chorus:

e|-------------------------|--------------------------|
B|-------------------------|--------------------------|
G|16-16-16-16--16-16-16-16-|-16-16-16-16--16-16-16-16-|
D|-------------------------|--------------------------|
A|-------------------------|--------------------------|
E|-------------------------|--------------------------|

e|-------------------------|--------------------------|
B|16-16-16-16--16-16-16-16-|-16-16-16-16--16-16-16-16-|
G|-------------------------|--------------------------|
D|-------------------------|--------------------------|
A|-------------------------|--------------------------|
E|-------------------------|--------------------------|

Outro:

e|-----------------|------------------|
B|-----------------|------------------|
G|-----------------|------------------|
D|-----------------|------------------|
A|-----------------|------------------|
E|7-7-7-7--7-7-7-7-|-7-7-7-7--7-7-7-7-|

e|-----------------|------------------|
B|-----------------|------------------|
G|-----------------|------------------|
D|-----------------|------------------|
A|-----------------|------------------|
E|3-3-3-3--3-3-3-3-|-3-3-3-3--3-3-3-3-|

Rhythm Guitar:
==============

Chorus:

e|-----------------|------------------|
B|-----------------|------------------|
G|-----------------|------------------|
D|9-9-9-9--9-9-9-9-|-9-9-9-9--9-9-9-9-|
A|9-9-9-9--9-9-9-9-|-9-9-9-9--9-9-9-9-|
E|7-7-7-7--7-7-7-7-|-7-7-7-7--7-7-7-7-|

e|-----------------|------------------|
B|-----------------|------------------|
G|-----------------|------------------|
D|5-5-5-5--5-5-5-5-|-5-5-5-5--5-5-5-5-|
A|5-5-5-5--5-5-5-5-|-5-5-5-5--5-5-5-5-|
E|3-3-3-3--3-3-3-3-|-3-3-3-3--3-3-3-3-|
Tap to rate this tab
 
# A B C D E F G H I J K L M N O P Q R S T U V W X Y Z