Song name
# A B C D E F G H I J K L M N O P Q R S T U V W X Y Z

Pete Schmidt - Graduation tab

Pete Schmidt - Graduation
Tabbed by Randy Zwitch
comments@peteschmidttabs.com

Standard tuning
Capo 2nd fret EP version
Capo 1st fret acoustic version

(1)
e---2---0---0---0----0----|
b---3---3---3---3----3----|
g---2---2---2---2----2----|
d---0---0---x---x----x----|
a-----------4---2----4----|
E-------------------------|

(2)
e---3--|----------3-------|---3---|
b---3--|----------3-------|---3---|
g---0--|--4---2---0-------|---0---|
d---0--|--4---2---0--(x3)-|---2---|
a---2--|--2---0---2-------|---3---|
E---3--|----------3-------|-------|

(3)
e---1---3---|
b---1---3---|
g---2---0---|
d---3---0---|
a---3---2---|
E---1---3---|
Tap to rate this tab
# A B C D E F G H I J K L M N O P Q R S T U V W X Y Z