Song name
# A B C D E F G H I J K L M N O P Q R S T U V W X Y Z

Pete Schmidt - Completely Mad tab

Pete Schmidt - Completely Mad
Tabbed by Randy Zwitch
comments@peteschmidttabs.com

Standard tuning, Capo 6 for both guitars

(1) Guitar 1		  Guitar 2                     
e-----------------------|---3--3-----0--0----|
b----1---------1----0---|---3--3-----1--1----|
g----0----0----0----0---|--------------------|
d----2----0----2----0---|--------------------|
a----3----2----0----2---|--------------------|
E---------3-------------|--------------------|

(2)                      (3)
e------0----3-----------|--------------------|
b------1----3-----------|----1----1----1-----|
g------2----0-----------|----0----0----2-----|
d------3----0-----------|----2----2----3-----|
a------x----2-----------|----3----0----0-----|
E------1----3-----------|--------------------|
Tap to rate this tab
 
# A B C D E F G H I J K L M N O P Q R S T U V W X Y Z