Song name
# A B C D E F G H I J K L M N O P Q R S T U V W X Y Z

Pete Schmidt - Get It Right One Time tab

Pete Schmidt - Get it right one time
Tabbed by Randy Zwitch
comments@peteschmidttabs.com

() indicate chord tones which are occasionally hit while strumming


Fast car intro (Tracy Chapman tease)

e-----------------|
b--3--3--8--7-----|
g--0--0--0--0-----|
d--x--x--x--x-----|
a--2--3--7--5-----|
E-----------------|



(Intro)
e----------------------------|-----------|
b---5-----------------3------|-----3--3--|
g-----7-----------(0)--------|--0--0--0--|
d-------5-(0)------4----(x3)-|--0--0--0--|
a-7-----------0h5------------|--x--x--x--|
E-0--------------------------|--5--3--2--|

(2)
e-------0--------|------------------|
b-------3--------|-----3--3--3------|
g-------0--------|--0--0--0--0------|
d---2---4--(x3)--|--0--0--0--0------|
a---2---5--------|--x--x--x--x------|
E---0------------|--5--3--2--3------|

(3)
e----------------------------|---------------|
b---5-----------------3------|-----3--3--3---|
g-----7-----------(0)--------|--0--0--0--0---|
d-------5-(0)------4----(x3)-|--0--0--0--0---|
a-7-----------0h5------------|--x--x--x--x---|
E-0--------------------------|--5--3--2--3---|


(4)                    (5)
e--------------------|------------------------|
b--8--8--8--8--------|--8--8--8--3--8--8--8---|
g--7--7--0--7--------|--7--7--0--0--7--7--7---|
d--0--0--7--0--(x2)--|--0--0--x--4--0--0--0---|
a--x--x--0--x--------|--x--x--7--5--x--x--x---|
E--8--7-----7--------|--8--7--0-----8--7--8---|

(6)
e--0--5------|
b--0--3--8---|
g--0--0--7---|
d--2--4--0---|
a--2--5--x---|
E--0-----8---|
Tap to rate this tab
# A B C D E F G H I J K L M N O P Q R S T U V W X Y Z