Song name
# A B C D E F G H I J K L M N O P Q R S T U V W X Y Z

Pete Schmidt - Lost In New York tab

Help us improve GuitareTab! Take a short survey!
Pete Schmidt - Lost in New York
Tabbed by Randy Zwitch
comments@peteschmidttabs.com
More of Pete Schmidt's songs are tabbed by Randy Zwitch at www.peteschmidttabs.com

(1)
e--------------------------|
b--7--10---5---7---5---3---|
g--7--11---6---7---6---2---|
d--7---9---4---7---7---0---|
a--x--10---5---x---x---x---|
E--7-----------7---5---3---|

(2)                (3)
e----------------|----------------------|
b------7---5-----|------5-------5---3---|
g-12---7---6-----|--12--6---7---6---2---|
d-12---7---7-----|--12--4---7---7---0---|
a--x---x---x-----|---x--5---x---x---x---|
E-12---7---5-----|--12------7---5---3---|

(4)
e------------|
b--7--5--3---|
g--7--6--2---|
d--7--7--0---|
a--x--x--x---|
E--7--5--3---|
Related for Lost In New York tab