Song name
# A B C D E F G H I J K L M N O P Q R S T U V W X Y Z

Pete Schmidt - On Sunday tab

Pete Schmidt - On Sunday (arranged for acoustic guitar)
From the album "No Safe Bet"
Tabbed by Randy Zwitch
comments@peteschmidttabs.com

Standard tuning

(1)
e----0----0-----0-----0----|---0----0----0----0----|
b----0----0-----0-----0----|---0----2----0----0----|
g----2----0-----0-----2----|---2----2----0----2----|
d----x----2-----2-----2----|---x----2----2----2----|
a----2----4-----2-----x----|---2----0----2----x----|
E---------------0-----2----|-------------0----2----|

(2a)
e-----------------------------0-------------|----3----|
b-----------------------------3-------------|----3----|
g-----------------------------2-----2-------|----0----|
d---2-------------------------0-----2---(x6)|----0----|
a---2--------5------5---7-----------0-------|----2----|
E---0----/7-----7---------------------------|----3----|

(2b)
e-----------------------------0-------------|----3---0---0----|
b-----------------------------3-------------|----3---3---2----|
g-----------------------------2-----2-------|----0---2---2----|
d---2-------------------------0-----2---(x6)|----0---0---2----|
a---2--------5------5---7-----------0-------|----2---x---0----|
E---0----/7-----7---------------------------|----3---2--------|

(2c)
e-----------------------------0-------------|----3---0---0----|
b-----------------------------3-------------|----3---3---0----|
g-----------------------------2-----2-------|----0---2---0----|
d---2-------------------------0-----2---(x6)|----0---0---2----|
a---2--------5------5---7-----------0-------|----2---x---2----|
E---0----/7-----7---------------------------|----3---2---0----|


(3)                       (4)
e----0----0----3----0----|----0----0----3----0-----0----0----3----|
b----0----3----3----2----|----0----2----3----2-----0----2----3----|
g----2----2----0----2----|----2----2----0----2-----2----2----0----|
d----x----0----0----2----|----x----2----0----2-----x----2----0----|
a----2---------2----0----|----2----0----2----0-----2----0----2----|
E--------------3---------|--------------3--------------------3----|
Tap to rate this tab
# A B C D E F G H I J K L M N O P Q R S T U V W X Y Z