Song name
# A B C D E F G H I J K L M N O P Q R S T U V W X Y Z

Pete Tong - More Intensity tab

-------------------------------------------------------------------------------
			     Pete Tong - More Intensity
                             [http://www.petetong.com/]
-------------------------------------------------------------------------------
Tabbed by: MegaManID
Email: MegaMan888@gmail.com

Tuning: Standart

Part 1. 
This is the bass riff, it continues 'till Part 2.

e|---------------------|
B|---------------------|
G|---------------------|
D|---------------------|
A|---------------------|
E|-2-3-5-0---2-3-5-0---|


Part 2.
It is like an intro to Part 3. Play it increasing the sound.

e|---------------|
B|---------------|
G|--2--2--2--2---|
D|----5--5--5--5-|
A|---------------|
E|---------------|


Part 3.
The main riff of the song, repeat it as much as you like.

e|----------------------------------------|
B|----------------------------------------|
G|-2/4-4-4-4-4-4-7--2---------------------|
D|--------------------5/7-7-7-7-7-0-7--9--|
A|----------------------------------------|
E|----------------------------------------|


Work out the timing yourself, it is really simple. It's a very nice house song, good for beginners.


| /  slide up
===============================================================================
Tap to rate this tab
 
# A B C D E F G H I J K L M N O P Q R S T U V W X Y Z