Song name
# A B C D E F G H I J K L M N O P Q R S T U V W X Y Z

Pete Yorn - Ever Fallen In Love tab

-------------------------------------------------------------------------------
			     Ever Fallen In Love? - Pete Yorn
-------------------------------------------------------------------------------
Tabbed by:J450N
Email:jaosnphillips34@hotmail.com

Tuning: Standard

Due to being a lot of strumming but few chords; You can work out the strumming pattern yourself.

VERSE
e|-2-2----------------------------------------------------------------|
B|-3-2----------------------------------------------------------------|
G|-4-2----------------------------------------------------------------|
D|-4-2----------------------------------------------------------------|
A|-2-0----------------------------------------------------------------|
E|--------------------------------------------------------------------|

e|--------------------------------------------------------------------|
B|-----3353-----------------------------------------------------------|
G|---42---------------------------------------------------------------|
D|-4------------------------------------------------------------------|
A|--5-----------------------------------------------------------------|
E|--------------------------------------------------------------------|

Chorus
e|-2-2-2-2------------------------------------------------------------|
B|-3-2-3-2-5-----7----7-----------------------------------------------|
G|-4-2-4-2-5-5-7-7-77-7-7---------------------------------------------|
D|-4-2-4-2-5-5-7-7-77-7-7---------------------------------------------|
A|-2-0-2-0-3-5-7-5-77-5-7---------------------------------------------|
E|-----------3-5---55---5---------------------------------------------|

DISTORTED PART
e|--------------------------------------------------------------------|
B|--------------------------------------------------------------------|
G|-44444444-44444422--------------------------------------------------|
D|-44444444-44444422--------------------------------------------------|
A|-22222222-22222200--------------------------------------------------|
E|--------------------------------------------------------------------|

e|--------------------------------------------------------------------|
B|-----3353-----------------------------------------------------------|
G|---42---------------------------------------------------------------|
D|-4------------------------------------------------------------------|
A|--5-----------------------------------------------------------------|
E|--------------------------------------------------------------------|

OUTRO
e|------5-------------------------------------------------------------|
B|------5-------------------------------------------------------------|
G|-10-9-7-------------------------------------------------------------|
D|-10-9-7-------------------------------------------------------------|
A|-8--7-5-------------------------------------------------------------|
E|--------------------------------------------------------------------|


| /  slide up
| \  slide down
| h  hammer-on
| p  pull-off
| ~  vibrato
| +  harmonic
| x  Mute note
===============================================================================
Tap to rate this tab
 
# A B C D E F G H I J K L M N O P Q R S T U V W X Y Z