Song name
# A B C D E F G H I J K L M N O P Q R S T U V W X Y Z

Pete Yorn - All At Once tab

----------------------------------------------------------------------------
			     All At Once - Pete Yorn
----------------------------------------------------------------------------
Tabbed by: adslam3

Tuning:Standard

VERSE
e|-----3-3---3-3---3-3------------------------------------------------------|
B|-----3-3---3-3---3-3------------------------------------------------------|
G|-------------------0------------------------------------------------------|
D|-0h2---------------0------------------------------------------------------|
A|---------3-----2---2------------------------------------------------------|
E|-------------------3------------------------------------------------------|

CHORUS
NOTE: I did not show strumming, you can figure it out (I swear). I have faith in you.
e|--3--3--3-----------------------------------------------------------------|
B|--3--3--3-----------------------------------------------------------------|
G|--2--0--0-----------------------------------------------------------------|
D|--0--0--2-----------------------------------------------------------------|
A|--x--2--3-----------------------------------------------------------------|
E|--2--3--------------------------------------------------------------------|

CHORUS END
e|-3--3--3--------3-3--------3-3--------------------------------------------|
B|-3--3--3--------3-3------3-3-3--------------------------------------------|
G|-2--0--0------0--------2--------------------------------------------------|
D|-0--0--2----2--------0----------------------------------------------------|
A|-x--2--3--3---------------------------------------------------------------|
E|-2--3---------------------------------------------------------------------|

BRIDGE
NOTE: I'm not sure about this.  Plus I'm not showing the strumming.
e|--3--3--3--3--------------------------------------------------------------|
B|--3--3--3--3--------------------------------------------------------------|
G|--0--0--2--0--------------------------------------------------------------|
D|--2--0--0--0--------------------------------------------------------------|
A|--3--2--x--2--------------------------------------------------------------|
E|-----3--2--3--------------------------------------------------------------|

This seems rushed because it is haha. I only did this to get you all started, put all 
correction in the "comments" section at the top so its easy to see whats wrong etc.  I'm 
I made mistakes so comments are welcome!!

| /  slide up
| \  slide down
| h  hammer-on
| p  pull-off
| ~  vibrato
| +  harmonic
| x  Mute note
============================================================================
Tap to rate this tab
# A B C D E F G H I J K L M N O P Q R S T U V W X Y Z