Song name
# A B C D E F G H I J K L M N O P Q R S T U V W X Y Z

Pete Yorn - I Wanna Be Your Boyfriend tab

Artist: 	Pete Yorn  
Song: 		I wanna be your boyfriend (Ramones Cover)
Album:		We're a happy family: Tribute to the Ramones
Transcribed by:	Alkalineweeman
Tempo:		120BPM
Linky:		http://www.youtube.com/watch?v=SABoToaXf9g

This tab was a request from some dude that messaged me so please don't reject it 
because of its simplicity, everybody learns at different speeds.
Cheers.

Verse:

     D///////////////////     G///////// A/////////
     Q    E  Q    E  E  E     Q    E  E  E  E  E  E   4x
E||--2----2--0----2--3--3--|--3----3--3--0--0--0--0---||
B||--3----3--3----3--3--3--|--3----3--3--2--2--2--2---||
G||--2----2--2----2--2--2--|--0----0--0--2--2--2--2--*||
D||------------------------|--0----0--0--2--2--2--2--*||
A||------------------------|--2----2--2--0--0--0--0---||
E||------------------------|--3----3--3---------------||


Chorus:
   Bmin////////////////	    G///////////////////
   Q    E  Q    E  E  E     Q    E  Q    E  E  E   4x       
---2----2--2----2--2--2--|--3----3--3----3--3--3---||
---3----3--3----3--3--3--|--3----3--3----3--3--3---||
*--4----4--4----4--4--4--|--0----0--0----0--0--0--*||
*--4----4--4----4--4--4--|--0----0--0----0--0--0--*||
---2----2--2----2--2--2--|--2----2--2----2--2--2---||
-------------------------|--3----3--3----3--3--3---||

Order:

Verse
Chorus
Verse
Chorus (Palm muted)
Verse 
Chorus (Palm muted)
Verse	X2
End on D

Lyrics:

Hey, little girl
I wanna be your boyfriend
Sweet little girl
I wanna be your boyfriend
Do you love me babe?
What do you say?
Do you love me babe?
What can I say?
Because I wanna be your boyfriend 
Tap to rate this tab
 
# A B C D E F G H I J K L M N O P Q R S T U V W X Y Z