Song name
# A B C D E F G H I J K L M N O P Q R S T U V W X Y Z

Pete Yorn - Shotgun tab

Ok so I realized there wasnt a tab for this great song  and I wanted to learn it so I 
down and did it myself. Here we go...

Im going to tab out two versions of the intro. The first is the album version. When 
live, Pete goes back and forth between both sometimes.

Intro/Verse 1
e|---------------------------------------------------------------|
B|---------------------------------------------------------------|
G|---------------------------------------------------------------|
D|---------333333------------------------------------------------|
A|--2-222--222222---2-222--333333--------------------------------|
E|--3-333-----------0-000--111111--------------------------------|

Intro/Verse 2
e|---------------------------------------------------------------|
B|---------------------------------------------------------------|
G|---------------------------------------------------------------|
D|----------------------2-222--333333----------------------------|
A|-5-555-101010101010---2-222--333333----------------------------|
E|-3-333--8 8 8 8 8 8---0-000--111111----------------------------|

Verse Lead        Fill 1        Fill 2         Fill 3
e|---3-----------10-8-7-3---------3-5-7------8-7-5-7-5-3---------|
B|--3---x24-------------------3-5--------------------------------|
G|---------------------------------------------------------------|
D|---------------------------------------------------------------|
A|---------------------------------------------------------------|
E|---------------------------------------------------------------|

Chorus
e|-2---0---0---3---------0---0---0---3-------0---0---1-----------|
B|-3---0---1---0---------1---0---1---0-------1---0---1-----------|
G|-2---0---0---0--x2-----2---0---0---0--x3---2---0---2----x1-----|
D|-0---2---2---0---------2---2---2---0-------2---2---3-----------|
A|-----2---3---2---------0---2---3---2-------0---2---3-----------|
E|-----0-------3-------------0-------3-----------0---1-----------|

Solo
e|----------------------------------------------------------15---|
B|--17-----17-----17--------------17-----17-----17---------------|
G|-----19b----19b----19br--16--------19b----19b----19br--16------|
D|----------------------------17---------------------------------|
A|---------------------------------------------------------------|
E|---------------------------------------------------------------|

e|---------------------------------------------------------------|
B|--17-----17-----17------------------------------------12-------|
G|-----19b----19b----19br---16-14-16--------------12-14----------|
D|------------------------------------------12-14----------------|
A|---------------------------------------------------------------|
E|---------------------------------------------------------------|

Bridge
e|----------------------------------------------------------------|
B|----------------------------------------------------------------|
G|----------------------------------------------------------------|
D|-10---5---3---------3-------------------------------------------|
A|-10---5---3--x2-----3--x16--------------------------------------|
E|--8---3---1---------1-------------------------------------------|

Play Verse until end. And that's it.
Tap to rate this tab
 
# A B C D E F G H I J K L M N O P Q R S T U V W X Y Z