Pete Yorn - Turn Of The Century tab

e|-----------------------------------------------|
B|---0-0-0-0-----0-0-0-0----0-0-0-0----0-0-0-0---|
G|---0-0-0-0-----0-0-0-0----0-0-0-0----0-0-0-0---|
D|-------------0----------2----------2-----------|
A|-3---------------------------------------------|
E|-----------------------------------------------|


e|---------------------------------------------|
B|---0-0-0-0----0-0-0-0---0-0-0-0---0-0-0-0----|
G|---0-0-0-0----0-0-0-0---0-0-0-0---0-0-0-0----|
D|----------------------2---------2------------|
A|-3----------3--------------------------------|
E|---------------------------------------------|

(CONTINUED)

e|-----------------------------------------------|
B|---2-2-2-2-----2-2-2-2----2-2-2-2----2-2-2-2---|
G|---0-0-0-0-----0-0-0-0----0-0-0-0----0-0-0-0---|
D|-------------0----------2----------2-----------|
A|-3---------------------------------------------|
E|-----------------------------------------------|


e|---------------------------------------------|
B|---2-2-2-2----2-2-2-2---2-2-2-2---2-2-2-2----|
G|---0-0-0-0----0-0-0-0---0-0-0-0---0-0-0-0----|
D|---------------------2----------2------------|
A|-3----------3--------------------------------|
E|---------------------------------------------|

VERSE

e|-----------------------------------------------|
B|---0-0-0-0-----0-0-0-0----0-0-0-0----0-0-0-0---|
G|---0-0-0-0-----0-0-0-0----0-0-0-0----0-0-0-0---|
D|-------------0----------2----------2-----------|
A|-3---------------------------------------------|
E|-----------------------------------------------|


e|---------------------------------------------|
B|---0-0-0-0----0-0-0-0---0-0-0-0---0-0-0-0----|
G|---0-0-0-0----0-0-0-0---0-0-0-0---0-0-0-0----|
D|----------------------2---------2------------|
A|-3----------3--------------------------------|
E|---------------------------------------------|

e|-----------------------------------------------|
B|---0-0-0-0-----0-0-0-0----0-0-0-0----0-0-0-0---|
G|---0-0-0-0-----0-0-0-0----0-0-0-0----0-0-0-0---|
D|-------------0----------2----------2-----------|
A|-3---------------------------------------------|
E|-----------------------------------------------|


e|---------------------------------------------|
B|---0-0-0-0----0-0-0-0---0-0-0-0---0-0-0-0----|
G|---0-0-0-0----0-0-0-0---0-0-0-0---0-0-0-0----|
D|----------------------2---------2------------|
A|-3----------3--------------------------------|
E|---------------------------------------------|

CHORUS
e|-----------------------0-0-0-0-0-0-0----0-0-0-0-0-3-0----|
B|-----------------------1-1-1-0-1-1-1----1-1-1-0-1-1-1----|
G|--------------0--------2-2-2-2-2-2-2----2-2-2-2-2-2-2----|
D|---0----0----2-2-------2-2-2-2-2-2-2----2-2-2-2-2-2-2----|
A|--2----0----2---2----------------------------------------|
E|-3----1----0---------------------------------------------|

VERSE 2

e|-----------------------------------------------|
B|---0-0-0-0-----0-0-0-0----0-0-0-0----0-0-0-0---|
G|---0-0-0-0-----0-0-0-0----0-0-0-0----0-0-0-0---|
D|-------------0----------2----------2-----------|
A|-3---------------------------------------------|
E|-----------------------------------------------|


e|---------------------------------------------|
B|---0-0-0-0----0-0-0-0---0-0-0-0---0-0-0-0----|
G|---0-0-0-0----0-0-0-0---0-0-0-0---0-0-0-0----|
D|----------------------2---------2------------|
A|-3----------3--------------------------------|
E|---------------------------------------------|


e|-----------------------------------------------|
B|---0-0-0-0-----0-0-0-0----0-0-0-0----0-0-0-0---|
G|---0-0-0-0-----0-0-0-0----0-0-0-0----0-0-0-0---|
D|-------------0----------2----------2-----------|
A|-3---------------------------------------------|
E|-----------------------------------------------|


e|---------------------------------------------|
B|---0-0-0-0----0-0-0-0---0-0-0-0---0-0-0-0----|
G|---0-0-0-0----0-0-0-0---0-0-0-0---0-0-0-0----|
D|----------------------2---------2------------|
A|-3----------3--------------------------------|
E|---------------------------------------------|

CHORUS 2

e|-----------------------0-0-0-0-0-0-0----0-0-0-0-0-3-0----|
B|-----------------------1-1-1-0-1-1-1----1-1-1-0-1-1-1----|
G|--------------0--------2-2-2-2-2-2-2----2-2-2-2-2-2-2----|
D|---0----0----2-2-------2-2-2-2-2-2-2----2-2-2-2-2-2-2----|
A|--2----0----2---2----------------------------------------|
E|-3----1----0---------------------------------------------|

e|-----------------------0-0-0-0-0-0-0----0-0-0-0-0-3-0----|
B|-----------------------1-1-1-0-1-1-1----1-1-1-0-1-1-1----|
G|--------------0--------2-2-2-2-2-2-2----2-2-2-2-2-2-2----|
D|---0----0----2-2-------2-2-2-2-2-2-2----2-2-2-2-2-2-2----|
A|--2----0----2---2----------------------------------------|
E|-3----1----0---------------------------------------------|

THIS PART CONTINUED TO THE END

e|-----------------------------------------------|
B|---0-0-0-0-----0-0-0-0----0-0-0-0----0-0-0-0---|
G|---0-0-0-0-----0-0-0-0----0-0-0-0----0-0-0-0---|
D|-------------0----------2----------2-----------|
A|-3---------------------------------------------|
E|-----------------------------------------------|


e|---------------------------------------------|
B|---0-0-0-0----0-0-0-0---0-0-0-0---0-0-0-0----|
G|---0-0-0-0----0-0-0-0---0-0-0-0---0-0-0-0----|
D|----------------------2---------2------------|
A|-3----------3--------------------------------|
E|---------------------------------------------|
Tap to rate this tab
 
# A B C D E F G H I J K L M N O P Q R S T U V W X Y Z