Song name
# A B C D E F G H I J K L M N O P Q R S T U V W X Y Z

Pete Yorn - Turn Of The Century tab

NOTES: On the album version(Day I Forgot) Pete plays this tuned down half a step.  But 
can be played in standard tuning and apparently he plays it in standard tuning live 
acoustic.

CHORDS USED:

 C   Am   G    F   Em
-3- -3-  -3-  -3- -3-|
-0- -1-  -3-  -3- -3-|
-0- -2-  -0-  -0- -0-|
-0- -2-  -0-  -0- -2-|
-3- -0-  -2-  -0- -2-|
-X- -X-  -3-  -1- -0-|

INTRO:

Rythum:

 C               Am
---3-3-3---3-3-3-----3-3-3---3-3-3---|
---0-0-0---0-0-0-----1-1-1---1-1-1---|
---0-0-0---0-0-0-0-2-2-2-2-2-2-2-2-0-|
---------0-------0-2-------2-------0-|
-3-----------------------------------|
-------------------------------------|

Piano (Or Lead):

-7---5-7---5-7-8-10-8-7-5-7---5-7--3-|
-------------------------------------|
-------------------------------------|
-------------------------------------|
-------------------------------------|
-------------------------------------|

VERSES:

(Play Same As Intro)

C  Am


Chorus:
  G     F     Em         Am
------3-----3------3-----------------------------3---|
0-----3-----3----3---3----1-1-0h1-1-1-0h1-1-1-0h1-1--|
0-----0-----0--0-------0-2-2-2-----2-2-----2-2-------|
----0-----0---2----------2---------------------------|
--------------2----------0---------------------------|
--3-----1-----0--------------------------------------|

That's it. The chorus is played twice, blah blah. Fade out.
Tap to rate this tab
# A B C D E F G H I J K L M N O P Q R S T U V W X Y Z