Song name
# A B C D E F G H I J K L M N O P Q R S T U V W X Y Z

Pete Yorn - Ice Age tab

Song: Ice Age
Artist: Pete Yorn
Tabbed By: Brad Schantz (stupefy99@yahoo.com)

Standard tuning, capo on 3rd fret


**Intro**

e|------------------------------------------------------------------|
B|-----1-----1---------1-----1--------------------------------------|
G|---0-----0-----0---0-----0-----0-----0-----0---0-----0-----0---0--|
D|-3-----3-----3---2-----2-----2-----0-----0---------0-----0--------|
A|---------------------------------3-----3-----3---2-----2-----2----|
E|------------------------------------------------------------------|

e|------------------------------------------------------------------|
B|-----1-----1---------1-----1--------------------------------------|
G|---0-----0-----0---0-----0-----0-----0-----0---0-----0-----0---0--|
D|-3-----3-----3---2-----2-----2-----0-----0---------0-----0--------|
A|---------------------------------3-----3-----3---2-----2-----2----|
E|------------------------------------------------------------------|


**Verse**

e|------------------------------------------------------------------|
B|-----1-----1---------1-----1--------------------------------------|
G|---0-----0-----0---0-----0-----0-----0-----0---0-----0-----0---0--|
D|-3-----3-----3---2-----2-----2-----0-----0---------0-----0--------|
A|---------------------------------3-----3-----3---2-----2-----2----|
E|------------------------------------------------------------------|
  When winter comes             Along these shores 

e|------------------------------------------------------------------|
B|-----1-----1---------1-----1--------------------------------------|
G|---0-----0-----0---0-----0-----0-----0-----0---0-----0-----0---0--|
D|-3-----3-----3---2-----2-----2-----0-----0---------0-----0--------|
A|---------------------------------3-----3-----3---2-----2-----2----|
E|------------------------------------------------------------------|
  Old Hollywood                 We're knocking down

e|------------------------------------------------------------------|
B|-----1-----1---------1-----1--------------------------------------|
G|---0-----0-----0---0-----0-----0-----0-----0---0-----0-----0---0--|
D|-3-----3-----3---2-----2-----2-----0-----0---------0-----0--------|
A|---------------------------------3-----3-----3---2-----2-----2----|
E|------------------------------------------------------------------|
  We're sifting through         We are the actual tigers

e|------------------------------------------------------------------|
B|-----1-----1---------1-----1-----------------------------------0--|
G|---0-----0-----0---0-----0-----0-----0-----0---0-----0-----0---0--|
D|-3-----3-----3---2-----2-----2-----0-----0---------0-----0--------|
A|---------------------------------3-----3-----3---2-----2-----2----|
E|------------------------------------------------------------------|
  When winter comes            They leave behind us

e|------------------------------------------------------------------|
B|-----0-----0---0--------------------------------------------------|
G|-----0-----0---0--------------------------------------------------|
D|---0-----0--------------------------------------------------------|
A|-2-----2-----2----------------------------------------------------|
E|------------------------------------------------------------------|


**Chorus**

    G               Am              F               C
e|------------------------------------------------------------------|
B|------0-----0---0-----1-----1---1-----1-----1---1-----1-----1---0-|
G|------0-----0---0-----2-----2---2-----2-----2---2-----0-----0---0-|
D|----0-----0---------2-----2---------3-----3---------2-----2-------|
A|------------------0-----0-----0-------------------3-----3-----3---|
E|--3------3----3-------------------1-----1-----1-------------------|
         Throw your arms around my neck And hold me tightly

    G               Am              F               C
e|------------------------------------------------------------------|
B|------0-----0---0-----1-----1---1-----1-----1---1-----1-----1---0-|
G|------0-----0---0-----2-----2---2-----2-----2---2-----0-----0---0-|
D|----0-----0---------2-----2---------3-----3---------2-----2-------|
A|------------------0-----0-----0-------------------3-----3-----3---|
E|--3------3----3-------------------1-----1-----1-------------------|
         There's a lot that we will get        I'm asking you... 

    G               Am              F               C
e|------------------------------------------------------------------|
B|------0-----0---0-----1-----1---1-----1-----1---1-----1-----1---1-|
G|------0-----0---0-----2-----2---2-----2-----2---2-----0-----0---0-|
D|----0-----0---------2-----2---------3-----3---------2-----2-------|
A|------------------0-----0-----0-------------------3-----3-----3---|
E|--3------3----3-------------------1-----1-----1-------------------|
         Let your diamond bracelet fall    Over the ice age

e|------------------------------------------------------------------|
B|-----1-----1---------1-----1--------------------------------------|
G|---0-----0-----0---0-----0-----0-----0-----0---0-----0-----0---0--|
D|-3-----3-----3---2-----2-----2-----0-----0---------0-----0--------|
A|---------------------------------3-----3-----3---2-----2-----2----|
E|------------------------------------------------------------------|
           Over the ice age...
 

**Verse 2**

Those summer years ~ We'd follow them 
In light of day ~ In light of us 
We'll see it through ~ When they're playing our song 
Those summer years ~ Have long since gone 


**Chorus**

Throw your arms around my neck ~ And whisper softly 
Of a thing that we will get ~ I'm asking you 
Let your diamond bracelet fall ~ Over the ice age 
Over the ice age 


**Guitar 2**

e|--3--1--0-----------------3--1--0-----------------|
B|-----------3--1--0-----0-----------3--1--0-----0--|
G|--------------------2-----------------------2-----| x2
D|--------------------------------------------------|
A|--------------------------------------------------|
E|--------------------------------------------------|


**Bridge**

e|-----------------------------------------------------------------|
B|-----------------------------------------------------------------|
G|-----------------2-2-2-2-2-2-2-2-----------------0-0-0-0-0-0-0-0-|
D|-0-0-0-0-0-0-0-0-2-2-2-2-2-2-2-2-3-3-3-3-3-3-3-3-2-2-2-2-2-2-2-2-|
A|-2-2-2-2-2-2-2-2-0-0-0-0-0-0-0-0-3-3-3-3-3-3-3-3-3-3-3-3-3-3-3-3-|
E|-3-3-3-3-3-3-3-3-----------------1-1-1-1-1-1-1-1-----------------|
                I want to go back...

e|-----------------------------------------------------------------|
B|-----------------------------------------------------------------|
G|-----------------2-2-2-2-2-2-2-2---------------------------------|
D|-2-2-2-2-2-2-2-2-2-2-2-2-2-2-2-2-3-3-3-3-3-3-3-3-3-3-3-3-3-3-3-3-|
A|-2-2-2-2-2-2-2-2-0-0-0-0-0-0-0-0-3-3-3-3-3-3-3-3-3-3-3-3-3-3-3-3-|
E|-0-0-0-0-0-0-0-0-----------------1-1-1-1-1-1-1-1-1-1-1-1-1-1-1-1-|
                I want to go back... 
 

**Verse 3**

In future times ~We'll hold it closer 
Imagining ~ We weren't older 
Yet, through it all ~ They'll be playing our song 


**Chorus**

Throw your arms around my neck ~ And whisper softly 
Of a thing that we will get ~ I'm asking you... 
Let your diamond bracelet fall ~ Over the ice age 
Over the ice age...
Tap to rate this tab
# A B C D E F G H I J K L M N O P Q R S T U V W X Y Z