Song name
# A B C D E F G H I J K L M N O P Q R S T U V W X Y Z

Pete Yorn - Sleep Better tab

Help us improve GuitareTab! Take a short survey!
Riff that is repeated several times:
e-------------------------------------------------------|
B-------------------------------------------------------|
G-------------------------------------------------------|
D---------0-0---------0-0------------2-2------------2-2-|
A------2-2---------2-2--------0-0-4-4-------0-0-4-4-----|
E---3-3---------3-3-------------------------------------|

e-------------------------------------------------------|
B-------------------------------------------------------|
G-------------------------------------------------------|
D----------0-0-----------0-0-----------0-0----------0-0-|
A------2-2----------2-2------------0-0----------0-0-----|
E--0-0----------0-0------------2-2----------2-2---------|


Chorus-
e--------0---------------------0------------------------|
B---3-------3-2h3-2-0-------3-----3-2p0-2-0-------------|
G-2---2---------------2---2---2-------------2-----------|
D-------------------------------------------------------|
A-------------------------------------------------------|
E-------------------------------------------------------|

Order:
riff-3x
chorus-2x
riff-2x
chorus-7x
riff-1x
blank space or C(032010) and D(xx0323)
chorus-2x
fade out w/ main riff or C and D
Related for Sleep Better tab