Song name
# A B C D E F G H I J K L M N O P Q R S T U V W X Y Z

Pete Yorn - Carlos Dont It Go To Your Head tab

CHORDS USED:
 A   G    C    D   D2   A2  C2  G2
-x- -x-  -x-  -x- -10- -5- -8- -3-
-x- -x-  -x-  -x- -10- -5- -8- -3-
-6- -4-  -5-  -7- -0-  -0- -0- -0-
-7- -5-  -5-  -7- -0-  -0- -0- -0-
-7- -5-  -3-  -5- -9-  -4- -7- -2-
-5- -3-  -x-  -x- -10- -5- -8- -3-

INTRO & VERSE 1: (And Main Riff Played Pretty Much The
Whole Song)

---------------------------|
---------------------------|
---------------------------|
---------------------------|
-------3-0-0---5-3-0-------|
-0-3-5---------------3-5-5-|

VERSE 2 & 3:

A  G  C  D (Fill in)

CHORUS:

D2 A2 C2 G2

VERSE 4:

A

Then the "Say you're not sold, you're sick of it all"
It goes back to:

A  G  C  D

And Continues For The "As Long As It Takes" Part

Then it stays similar through the rest of the song with improvisation in the key of A 
the lead part.


FILL IN:

--------------------------|
5---5-5-5-5-5-5-5-5-5-5-5-|
7b9-9-9-9-9-9-9-9-9-9-9-9-|
--------------------------|
--------------------------|
--------------------------|

Whoever originally made this tab has awful grammar and I had to edit the thing to hell 
back to actually make sense of it at all. Le sigh.
Tap to rate this tab
# A B C D E F G H I J K L M N O P Q R S T U V W X Y Z