Song name
# A B C D E F G H I J K L M N O P Q R S T U V W X Y Z

Peter And Gordon - Land Of Oden tab

Help us improve GuitareTab! Take a short survey!
Main Riff: (keep repeating)
E-------9--------------7-------------------------------|
B-5-7-9--9-7-5----5-7-9--9-7-5-------------------------|
G------------------------------------------------------|
D------------------------------------------------------|
A------------------------------------------------------|
E------------------------------------------------------|

Solo:
E------------9p7------------9-------------------------------------7-------|
B-5-5-7-9--9-----7-7--5-7-9---9-7-5---------------------------------9-7-5-|
G-----------------------------------5-5-5-5-5-3-----------5---------------|
D-----------------------------------------------5b--5-5-5---5-7-----------|
A-------------------------------------------------------------------------|
E-------------------------------------------------------------------------|

Another juicy tab from Santyclaws
Related for Land Of Oden tab