Song name
# A B C D E F G H I J K L M N O P Q R S T U V W X Y Z

Peter And Gordon - I Dont Care What They Say tab

Help us improve GuitareTab! Take a short survey!
C                             Bm
I don't care what they say, I just cried when you went away
Am            Em           Am               Em
forget her is all they say, you'll find another love someday
F                   C                    
please, oh please, the only love I want is you.

Bridge:
Bm                     Am              Em
Since that day when you said good-bye to me
Bm         Am        F
I've been away on my own

Solo:
E--------------------------------------------------------------------------|
B--------------------------------------------------------------------------|
G-0-2-4-5-4-2--0-------------------------------2-5--3-2------2-3-5-3-2-----|
D----------------4-3-1-0-------------------2h3-----------2h3-----------3-2-|
A------------------------4-3-1-0-------2-3---------------------------------|
E-------------------------------1-0-0h3------------------------------------|

E-------------------------------------------------------|
B-------------------------------------------------------|
G----------2-4-2----------------------------------------|
D-2-3--4-6-------6-4--3-2-0---------2-----------2-------|
A---------------------------0-0-2-3---3-0-2-3-3---3-2---|
E-------------------------------------------------------|

You better like this, cuz it took forever
                             -Santyclaws
Related for I Dont Care What They Say tab