Song name
# A B C D E F G H I J K L M N O P Q R S T U V W X Y Z

Peter And The Test Tube Babies - Smiling Through The Tears chords

Highlighted       Show chord diagrams
-------------------------------------------------------------------------------
	SMILING THROUGH THE TEARS - Peter and the test tube babies
-------------------------------------------------------------------------------
Tabbed by: starbreaker
Email: shurik666@inbox.ru

Tuning: standard

All chords here are power chords

Intro:   F   G

A            E
Last time in Germany
D      E
A 5-1 victory
A            E              D
This time it will be better still

A                E
Hear the 3 Lions roar
D                  E 
Every time England scores
A              E              D 
We'll take the World Cup from Brazil

F#
The waiting's almost over
G
I can feel it in the air

C
England will win the cup
E
Okay, we'll need some luck
F                           G 
It'll be our first in forty years
C
England will rule again
E
There will be no more pain
F                                G
We'll all be smiling through the tears

    F    G

A                 E
No more excuses please
D                 E
No more missed penalties
A            E            D 
It's time to justify your pain

A                 E         
Please leave your wives at home
D                E     
You can win this on your own
A              E                  D
While Sven and Becks are getting laid

F#
The waiting's almost over
G
I can feel it in the air

C
England will win the cup
E
Okay, we'll need some luck
F                           G
It'll be our first in forty years
C
England will rule again
E
There will be no more pain.
F                                G
We'll all be smiling through the tears

Solo:

e|--------------------------------------------|
B|--------------------------------------------|
G|--5-5-7-7-5~---5-5-7-7-9~--5-5-7-7-5--5-----|
D|----------------------------------------5~--|
A|--------------------------------------------|
E|--------------------------------------------|

e|---------------------------------------------------------------|
B|---------------------------------------------------------------|
G|--5-5-7-7-5~---5-5-7-7b8r7-5--7b8r7-5--7b8r7-5--5--------------|
D|--------------------------------------------------5~---5/7--5--|
A|---------------------------------------------------------------|
E|---------------------------------------------------------------|

E              C#
Final whistle, England wins
B
Celebrations can begin
A          C#           F#    
Could be another forty years!
              G
Another forty years....

C
England will win the cup
E
Okay, we'll need some luck
F                           G
It'll be our first in forty years
C
England will rule again
E
There will be no more pain
F                                G
We'll all be smiling through the tears
Tap to rate this tab
 
# A B C D E F G H I J K L M N O P Q R S T U V W X Y Z