Song name
# A B C D E F G H I J K L M N O P Q R S T U V W X Y Z

Peter And The Test Tube Babies - Guest List tab

Peter and the test tube babies - Guest List

easy song to play , if you need more help you can see me play it :

http://www.youtube.com/watch?v=1wZSpye_Ubc&feature=youtu.be

or send me an email on machine_sk8@hotmail.fr

don't forget to rate me,thank you!Enjoy!

Intro:

e|-------------------------------------|
b|-------------------------------------|
g|7------------------------------------|
d|--7-10-7-----------------------------| repeat x 6
a|-------------------------------------|
e|-------------------------------------|

Verses:

e|-------------------------------------|
b|-------------------------------------|
g|7--------7---5-----------------------|
d|7---7----7---5-----------------------| let ring every riff.
a|5---7----5---3-----------------------| repeat this x 2
e|----5--------------------------------|

bridge :
e|-------------------------------------|
b|-------------------------------------|
g|7------------------------------------|
d|--7-10-7-----------------------------| repeat x 2
a|-------------------------------------|
e|-------------------------------------|

Verses:

e|-------------------------------------|
b|-------------------------------------|
g|7--------7---5-----------------------|
d|7---7----7---5-----------------------| let ring every riff
a|5---7----5---3-----------------------| repeat x 2
e|----5--------------------------------|

bridge :
e|-------------------------------------|
b|-------------------------------------|
g|7------------------------------------|
d|--7-10-7-----------------------------| 
a|-------------------------------------|
e|-------------------------------------|

Chorus :

e|-------------------------------------|
b|-------------------------------------|
g|9----9-9------5----5-5---------------|
d|9----9-9------5----5-5---------------| repeat x 2
a|7----7-7------3----3-3---------------|
e|-------------------------------------|

e|-------------------------------------|
b|-------------------------------------|
g|9----9-9------5----7-5-7-------------|
d|9----9-9------5----7-5-7-------------| 
a|7----7-7------3----5-3-5-------------|
e|-------------------------------------|

Solo:

e|-------------------------------------------------------------|
b|-------6---6-------------------------------------------------|
g|---6--9-9-9-9-7--7-9-7--7-9-7--5-4-5-7-5--5-4-------------2--|
d|7-9-9----------9------------------------------5-5-3-2--3-5---| 
a|-------------------------------------------------------------|
e|-------------------------------------------------------------|

e|--------------------------------------------------------|
b|-------6---6--------------------------------------------|
g|---6--9-9-9-9-7--7-9-7--7-9-7--5-4-5-7-5--5-4-----------|
d|7-9-9----------9------------------------------5-5-3-2---| 
a|--------------------------------------------------------|
e|--------------------------------------------------------|

1st Verses:

e|-------------------------------------|
b|-------------------------------------|
g|7--------7---5-----------------------|
d|7---7----7---5-----------------------| let ring every riff.
a|5---7----5---3-----------------------| repeat this x 2
e|----5--------------------------------|

bridge :
e|-------------------------------------|
b|-------------------------------------|
g|7------------------------------------|
d|--7-10-7-----------------------------| repeat x 2
a|-------------------------------------|
e|-------------------------------------|

1st Verses:

e|-------------------------------------|
b|-------------------------------------|
g|7--------7---5-----------------------|
d|7---7----7---5-----------------------| let ring every riff
a|5---7----5---3-----------------------| repeat x 2
e|----5--------------------------------|

bridge :
e|-------------------------------------|
b|-------------------------------------|
g|7------------------------------------|
d|--7-10-7-----------------------------| 
a|-------------------------------------|
e|-------------------------------------|

Chorus :

e|-------------------------------------|
b|-------------------------------------|
g|9----9-9------5----5-5---------------|
d|9----9-9------5----5-5---------------| repeat x 2
a|7----7-7------3----3-3---------------|
e|-------------------------------------|

e|-------------------------------------|
b|-------------------------------------|
g|9----9-9------5----7-5-7-------------|
d|9----9-9------5----7-5-7-------------| 
a|7----7-7------3----5-3-5-------------|
e|-------------------------------------|

End :

e|-------------------------------------|
b|-------------------------------------|
g|7---5--4--5-4-5----------------------|
d|7---5--4--5-4-5----------------------| repeat x2
a|5---3--2--3-2-3----------------------|
e|-------------------------------------|

e|-------------------------------------|
b|-------------------------------------|
g|7--10--12--14------------------------|
d|7--10--12--14------------------------| repeat x2
a|5--8---10--12------------------------|
e|-------------------------------------|

e|----------------------------------------|
b|----------------------------------------|
g|7--10--12--14-14-14-14-14-14-14-14---7--|
d|7--10--12--14-14-14-14-14-14-14-14---7--| 
a|5--8---10--12-12-12-12-12-12-12-12---5--|
e|----------------------------------------|

Get me on the GUEST LIST!

http://www.youtube.com/watch?v=kuSlAbusE_Q
Tap to rate this tab
 
# A B C D E F G H I J K L M N O P Q R S T U V W X Y Z