Peter Andre - Mysterious Girl tab

-------------------------------------------------------
Artist:   Peter Andre
Song:     Mysterious Girl
Type:     Tab
-------------------------------------------------------

This song has a variety of ridiculous instruments, so be
sure to pick your favorite and strum along.

The Rhythm Guitar is played throughout the whole song 
with the bend variation every 2/4 beats. The Bass is the
same throughout. The Banjo kicks in at 0:36 and the sick
organ solo at 2:43




Chimes Intro...

E|------------------13-11---8h11p8-11-15-13-11--------|
B|-11p8-11-11-11-------------------------------13-11--|
G|----------------------------------------------------|
D|----------------------------------------------------|
A|----------------------------------------------------|
E|----------------------------------------------------|

E|-------------------13-11---8h11p8-11-15-13-11-------|
B|-8h9h11-11p8-11-------------------------------13-11-|
G|----------------------------------------------------|
D|----------------------------------------------------|
A|----------------------------------------------------|
E|----------------------------------------------------|




Rhythm Guitar Loop...

E|----6-x---6-x----8p6-x-8-x-----4-x---4-x----6p4-x-6-|
B|----4-x---4-x-------------------------------6---x-6-|
G|-----------------8---x-8-x-----5-x---5-x------------|
D|----------------------------------------------------|
A|----------------------------------------------------|
E|----------------------------------------------------|

Rhythm Guitar With The Bend...

E|----6-x---6-x----8p6-x-8-x-----4-x-4-x--------------|
B|----4-x---4-x--------------------------7b8b7-7b8b7--|
G|-----------------8---x-8-x-----5-x-5-x--------------|
D|----------------------------------------------------|
A|----------------------------------------------------|
E|----------------------------------------------------|




Bass Loop...

G|------3-3-3-----------------------------------------|
D|-1-----------------5-5-5--------6-6-6------------0--|
A|--------------3-------------------------1----1-3----|
E|---------------------------4------------------------|





Banjo... (At 0:36) x2

E|----------------------------------------------------|
B|----------------------------------------------------|
G|----------------------------------------------------|
D|-----------------------10-10-x-10\8--8/12\10-10\8---|
A|--6--6--6/10\8--8\6---------------------------------|
E|----------------------------------------------------|

E|----------------------------------------------------|
B|------------------------9--9---9-x--9/11\9---9h11p9-|
G|------------------------8--8---8-x--8/10\8----------|
D|-----------------------10-10--10-x-10/12\10---------|
A|--6--6--6/10\8--8\6---------------------------------|
E|----------------------------------------------------|





Solo... (At 2:43)

E|-------11----11-11-11-------------------------------------------------|
B|-11h13----13----------13-11~---13-------------------------------------|
G|--------------------------------------13p12--13p12--13p12-------------|
D|------------------------------------13-----13-----13-----10-8~---10---|
A|----------------------------------------------------------------------|
E|----------------------------------------------------------------------|

E|----------------------------------------------------------------------|
B|----------------------------------------------------------------------|
G|------8-8----8h10-----8-8---8h10------13p12--13p12--13/15-15h17p15-17-|
D|-8h10-----10--------8-----8---------13-----13-----13------------------|
A|----------------------------------------------------------------------|
E|----------------------------------------------------------------------|

E|-------11----13-11-11-------------------------------------------------|
B|-11h13----13----------13-11~---13------------------------13-11~---13--|
G|--------------------------------------13p12--13p12--13p12-------------|
D|------------------------------------13-----13-----13------------------|
A|----------------------------------------------------------------------|
E|----------------------------------------------------------------------|

E|------------------------------------------------------------------11!-|
B|-11~-----------------------------------------------8-11-x-------------|
G|-----13~---12--------------------8----8h10-10-8h10--------------------|
D|---------13---15-13~---15---8h10---10---------------------------------|
A|----------------------------------------------------------------------|
E|----------------------------------------------------------------------|
Tap to rate this tab
 
# A B C D E F G H I J K L M N O P Q R S T U V W X Y Z