Song name
# A B C D E F G H I J K L M N O P Q R S T U V W X Y Z

Peter Bjorn And John - Teen Love tab

Highlighted       Show chord diagrams
Peter Bjorn and John - Teen Love
Album: Falling Out, 2005

Tabbed by Robert Boensma
mail: robertboensma at hotmail dot com


Chords:
C     - x32010
Csus4 – x32011
Am    - x02210
Asus  - x02230
Dm    - xx0231
G     - 320033
F     - 133211

Riff 1:
e|-----------------------|
B|-----------------------|
G|-2-2-0-2-------------0-|
D|---------2-2---2-0-2---|
A|-----------------------|
E|-----------------------|



Riff 2:
e|-------------------|
B|-6-5-3-5-6-8-6-5-3-|
G|-------------------|
D|-------------------|
A|-------------------|
E|-------------------|



Riff 3:
e|---------------------------------------|
B|-----7---------5---------4---------2---|
G|-5-5---5---3-3---3---2-2---2---0-0---0-|
D|---------------------------------------|
A|---------------------------------------|
E|---------------------------------------|


Intro: (x2)
C Csus4 C Csus4 C
Am Asus Am Asus Am 

Verse 1:
C                                    Am  Asus Am Asus Am
  I hope everything’s all right with you
C                                 Am  Asus Am Asus Am 
  Maybe I should go and see about you
C                           Am  Asus Am Asus Am 
  Collect some love, if you don't mind 
C                           Am  Asus Am Asus Am 
  Collect some love, if you won't mind no

Bridge:
Dm              G
    My heart it grows
Dm              G
    My heart it grows

Chorus:
F Am
      Fallin' 
F Am
      I'm Fallin' in 
F Am                        G
      I've fall'n love with you

Verse 2:
C                                 Riff 1 
  I smile for a second, then it's gone 
C                         Riff 1
  When I realize I'm all alone 
C                          Am  Asus Am Asus Am 
  Why is it so hard? No, I won't cry 
C                    Am  Asus Am Asus Am 
  Oh, so hard! No, I won't cry, no

Bridge:
Dm              G
    My heart it grows
Dm + Riff 2     G
    I think she knows

Chorus (x2)

Verse 3:
C                                      Am  Asus Am Asus Am 
  Carry me home, the night is dark and long 
C                                             Am  Asus Am Asus Am 
  I think I'm done with all the people taking part 
C                          Am  Asus Am Asus Am 
  So I move little closer, if you don't mind 
C                                    Am  Asus Am Asus Am 
  And I leave a mark on your face, I don't mind, no 

Chorus (x3)

Riff 3 (x2)

End on C
Tap to rate this tab
# A B C D E F G H I J K L M N O P Q R S T U V W X Y Z