Song name
# A B C D E F G H I J K L M N O P Q R S T U V W X Y Z

Peter Bjorn And John - Young Folks tab

Very catchy tune here. First time doing tabs so bare with me. It sounds correct, 
but let me know your feedback.  


e|-11h12---12-12-12--9-9--7-7-9-----------------------------------------|
B|--------------------------------11h12---12-12-12--9-9--7--------------|
G|----------------------------------------------------------------------|
D|----------------------------------------------------------------------|
A|----------------------------------------------------------------------|
E|----------------------------------------------------------------------|


e|----------------------------------------------------------------------|
B|-9---9-9-9--7-7-------------------------------------------------------|
G|-----------------10-10--7-10------------------------------------------|
D|----------------------------------------------------------------------|
A|----------------------------------------------------------------------|
E|----------------------------------------------------------------------|
Tap to rate this tab
 
# A B C D E F G H I J K L M N O P Q R S T U V W X Y Z