Song name
# A B C D E F G H I J K L M N O P Q R S T U V W X Y Z

Peter Bjorn And John - Dig A Little Deeper tab

-------------------------------------------------------------------------------
			       Dig a Little Deeper - Peter Bjorn & John
-------------------------------------------------------------------------------
Tabbed by: Austin811
Email: austin811@sbcglobal.net

Tuning:Standard


Chords:

 G: 355433
C1: 335553
C2: 81010988




Intro:   G slide up to  C2  (x11)


Verses: 

Guitar 1:
e|-------------------------------------|
B|-------------------------------------|
G|-------------------------------------|
D|-------------------------------------|
A|--------------2-5-33-3-3-3-3-3-2-----|
E|--33-3-3-3-3-3-------------------5---|

Guitar 2:

        G  C1

Guitar 1:

e|------------------------------------------------------|
B|------------------------------------------------------|
G|------------------------------------------------------|
D|---------------2--------------------------------------|
A|--55-5-5-5-5-5---5-33-3-3-3-3-3-5-3-22-2-2-2-2-2/5-3--|
E|------------------------------------------------------|

then...

Guitar 1:

e|-----------------|
B|-----------------|
G|-----------------|
D|-----------------|
A|--5-7-5-7-5-7-5--|
E|-----------------|

Guitar 2:

e|-----------------|
B|--3-5-3-5-3-5-3--|
G|--4-5-4-5-4-5-4--|
D|-----------------|
A|-----------------|
E|-----------------|


Chorus:


Guitar 1:  G  C2

Guitar 2:  G  C1



Intro (x6) Guitar 1 only


Guitar 2: (only)

e|-------------------------------------|
B|-------------------------------------|
G|-------------------------------------|
D|-------------------------------------| 
A|--------------2-5-33-3-3-3-3-3-2-----|
E|--33-3-3-3-3-3-------------------5---|

fades to... 

e|----------|
B|----------|
G|----------|
D|----------|   (softly let notes ring out)
A|------3---|
E|--3-------|

Guitar 1:

e|--15\---------15\--------15-15-15--15--15-15--15--15--15-15/--------------|
B|------------------------(15-15-15--15--15-15--15--15--15-15/)-5-3-5-3-5-3-|
G|--12\---------12\---------------------------------------------5-4-5-4-5-4-|
D|--------------------------------------------------------------------------|
A|--------------------------------------------------------------------------|
E|--------------------------------------------------------------------------|

e|--------------|
B|--5-3-5-3-5-3-|
G|--5-4-5-4-5-4-|  (x4)  softer each time
D|--------------| 
A|--------------|
E|--------------|


Guitar 2: 

e|-------------------------------------|
B|-------------------------------------|
G|-------------------------------------|
D|-------------------------------------|  (repeat over and over)
A|--------------2-5-33-3-3-3-3-3-2-----|
E|--33-3-3-3-3-3-------------------5---|

Guitar 1:

e|--3--3--5p3-------3-----3-3---3-------|
B|--3-(3)-----5-------3-----------3-----|
G|--4-----------4/5-----5-----5-----5---|
D|--5-----------------------------------|
A|--5-----------------------------------|
E|--3-----------------------------------|

e|--3--3--5p3----------3---3------------|
B|--3-(3)-----5--3----------------------|
G|--4--------------4-5---5--------------|
D|--5-----------------------------------|
A|--5-----------------------------------|
E|--3-----------------------------------|

                 (x2)

Guitar 1:  G  C2

Guitar 2:  G  C1

both end on G


Lyrics:

You think you've got it made
I'm trying to have some fun
You think you know it all
I've only just begun
You're sliding on the surface
I'm reaching for the bottom
The past is 
The future fades away
And if you think your brain is hollow
You just have to scream
And dig a little deeper.

All art has been contemporary
Dig a little deeper, dig a little deeper

You enjoy the silence
When I want to discuss
You like to keep it tidy
I wanna mess it up
I defy definition
Of what's supposed to be 
I don't want recognition
If you don't recognize me 
And if you think your brain is hollow
You just have to scream
And dig a little deeper.

All art has been contemporary
Dig a little deeper, dig a little deeper

Oh-oh, oh-oh	



Thanks! Any corrections/comments/questions, feel free to email me
Tap to rate this tab
 
# A B C D E F G H I J K L M N O P Q R S T U V W X Y Z