Song name
# A B C D E F G H I J K L M N O P Q R S T U V W X Y Z

Peter Bjorn And John - Up Against The Wall tab

-------------------------------------------------------------------------------
                             UP AGAINST THE WALL - Peter Bjorn & John
-------------------------------------------------------------------------------
Tabbed by:Maddy
E-mail: maddy_taylor13@yahoo.com

Tuning: Standard

7 Minute Version

*INTRO*

00:28
e|-----------------------------------------------------------------------------|
B|-----------------------------------------------------------------------------|
G|-----------------------------------------------------------------------------|
D|4--44--4-4--4h5--4--44--4-4--4-9--4-44--4-4--4h5--4--44--4-4--4-9------------|
A|-----------------------------------------------------------------------------|
E|-----------------------------------------------------------------------------|

 *BASS*
e|-----------------------------------------------------------------------------|
B|-----------------------------------------------------------------------------|
G|-----------------------------------------------------------------------------|
D|4--44--4-4--4h5--4--44--4-4--4-9--4-44--4-4--4h5--4--44--4-4--4-9------------|
A|-----------------------------------------------------------------------------|
E|-----------------------------------------------------------------------------|


(It helps to count to 12,
1 number for 2 beats.)

e------------------------------------------------------------------------------|
B|7-7-7-7-7-7-7-7-7-7-7-7--12--12--12--12--------------------------------------|
G|-9-9-9-9-9-9-9-9-9-9-9-9---14--14--14--14------------------------------------|
D------------------------------------------------------------------------------|
A|-----------------------------------------------------------------------------|
E|-----------------------------------------------------------------------------|


e|-----------------------------------------------------------------------------|
B|-----------------------------------------------------------------------------|
G|-----------------------------------------------------------------------------|
D|4--44--4-4--4h5--4--44--4-4--4-9--4-44--4-4--4h5--4--44--4-4--4-9------------|
A|-----------------------------------------------------------------------------|
E|-----------------------------------------------------------------------------|


e|-----------------------------------------------------------------------------|
B|-----------------------------------------------------------------------------|
G|-----------------------------------------------------------------------------|
D|4--44--4-4--4h5--4--44--4-4--4-9--4-44--4-4--4h5--4--44--4-4--4-9------------|
A|-----------------------------------------------------------------------------|
E|-----------------------------------------------------------------------------|


e|-----------------------------------------------------------------------------|
B|-----------------------------------------------------------------------------|
G|-----------------------------------------------------------------------------|
D|4--44--4-4--4h5--4--44--4-4--4-9--4-44--4-4--4h55-55-4--44--4-4--4-9999------|
A|-----------------------------------------------------------------------------|
E|-----------------------------------------------------------------------------|


e|-----------------------------------------------------------------------------|
B|-----------------------------------------------------------------------------|
G|-----------------------------------------------------------------------------|
D|4--44--4-4--4h55-4--44--4-4--4-9--4-44--4-4--4h5--4--44--4-4--4-0------------|
A|-----------------------------------------------------------------------------|
E|-----------------------------------------------------------------------------|

(
e|-----------------------------------------------------------------------------|
B|-----------------------------------------------------------------------------|
G|-----------------------------------------------------------------------------|
D|4--44--4-44-4h5-4--44--4-4--4-9----------------------------------------------|
A|-----------------------------------------------------------------------------|
E|-----------------------------------------------------------------------------|


e------------------------------------------------------------------------------|
B|7-7-7-7-7-7-7-7-7-7-7-7--12--12--12--12--------------------------------------|
G|-9-9-9-9-9-9-9-9-9-9-9-9---14--14--14--14------------------------------------|
D|-----------------------------------------------------------------------------|
A|-----------------------------------------------------------------------------|
E|-----------------------------------------------------------------------------|



In other versions of the song, and in the background of this version: the riff is a tad 
bit different:

e-------10-----10----------------------------------------------------------------|
B|7-7-7---7-7-7---7-7-7-7---12--12--12--12---------------------------------------|
G|-9-9-9---9-9-9---9-9-9-9----14--14--14--14-------------------------------------|
D|-------------------------------------------------------------------------------|
A|-------------------------------------------------------------------------------|
E|-------------------------------------------------------------------------------|


I believe that's all, folks. Of course, different versions have different layouts, but
this should cover everything.

Video with Lyrics: http://www.youtube.com/watch?v=_UwB1y6Pocg

Awesome (unofficial) music video:http://www.youtube.com/watch?v=sbWemy7dwUE

This is my first tab, so corrections are VERY welcome. Hope it helps and DFTBA.
Tap to rate this tab
 
# A B C D E F G H I J K L M N O P Q R S T U V W X Y Z