Song name
# A B C D E F G H I J K L M N O P Q R S T U V W X Y Z

Peter Bradley Adams - Darkening Sky tab

                                MCSPUD98

Hi, this is my first tab and I know I'm not very good at it but I hope it helps anyway :)
btw I'm pretty sure there are two guitars in this, I've only done one so it won't sound identical.


Drop D tuning

Intro

|----------------------------------------------------------------------------|
|------3----------3---------3-------3-------3----------------3-------3-------|
|----2-2--------0-0---------0-----2-2-----2-2---0----0-----2-2-----2-2-------|
|--3--------0h2-----------0-----0-------3-------0h2--0---0-------------------|
|---------------------0h3-----------------------------3----------------------|
|----------------------------------------------------------------0-----------|

|----------------------------------------------------------------------------|
|-----3----------3---------3----------3----------3---------3--------3--------|
|---2-2--------0-0-------0-0--------2-2----------0---------0------2-2--------|
|-3--------0h2-------------------0-------------0---------0------0------------|
|--------------------0h3-------------------0h2-------2h3---------------------|
|------------------------------------------------------------------------0---|


Verse

|----------------------------------------------------------------------------|
|------3----------3---------3-------3-------3--------3-------3-------3-------|
|----2-2--------0-0---------0-----2-2-----2-2--------0-----2-2-----2-2-------|
|--3----------2-----------0-----0-------3----------0-----0-------------------|
|-----------------------3------------------------3---------------------------|
|----------------------------------------------------------------0-----------|

|----------------------------------------------------------------------------|
|-----3----------3---------3----------3----------3---------3--------3--------|
|---0-0--------0-0-------0-0--------2-2----------0---------0------2-2--------|
|--------------------------------0-------------0---------0------0------------|
|-2--------3----------3--------------------0h2-------2h3---------------------|
|------------------------------------------------------------------------0---|


Chorus


|--------------------------------------------------------------------------|
|------3----------3---------3-------3-------3----------3-------3--------3--|
|----2-2--------0-0---------0-----0-0-----2-2--------2-2-----2-2------2-2--|
|-------------------------0-------0----------------------------------------|
|--3---------3---------2---------------------------------------------------|
|-------------------------------3-------0---------0--------0--------0------|

Structure

- Intro

- Verse x2

- Chorus x2

- Verse x3

- Chorus x4

- Outro/bridge (same as intro)

- Verse x6

                                  MCSPUD98
Tap to rate this tab
# A B C D E F G H I J K L M N O P Q R S T U V W X Y Z