Song name
# A B C D E F G H I J K L M N O P Q R S T U V W X Y Z

Peter Bradley Adams - Song For Viola tab

Song:Song For Viola
Album: Leavetaking
Artist:Peter Bradley Adams
Key: Dm

This tab is a two part effort from Aaron Simpson (Largebehind) and Jack Cookson 
The piano part was arranged by Jack and the viola by Aaron. This is a great song I hope we've 
it justice.
----------------------------------------------------------------------------
Piano part arranged for guitar by Jack Cookson (Torn Asunder)


Dm Dsus2 Dm Dsus2

Bb  C   Bb   C

(Viola comes in for the first time here) (See below tablature)

Dm Dsus2 Dm Dsus2

Bb  C   Bb   C

(Viola goes piano here)

Dm Dsus2 Dm Dsus2

Bb  C   Bb    C

(Viola comes in forté here)

Dm  Bb   F   C   Bb   C

Dm    Bb     F    C

Dm    Bb     F    C

(Guitar comes in here)

Dm    Bb     F    C

Dm    Bb     F    C

(All instruments stop but piano and viola here)

Dm Dsus2 Dm Dsus2

Dm Dsus2 Dm Dsus2
----------------------------------------------------------------------------

Viola part arranged for guitar by Aaron Simpson

I've placed the notes over the fret numbers for ease in transcription to other 
and to different keys.

   D     C    Bb D  C   Bb A Bb  D  Bb  D   G  F  E C  D  D   C  A Bb D  C
e|-------------------------------------------------------------------------|
B|--------------------------------------15----------10-8-------------------|
G|------------------------------------------12-10-9------------------------|
D|-12v--10v---8--12-10--8--7-8--12--8---------------------12--10-7-8-12-10-|
A|-------------------------------------------------------------------------|
E|-------------------------------------------------------------------------|

   D   F    G    Bb   Bb G  Bb G    G  B     G  F G  F   G F  G    F  A  G
e|-------------------------------------------------------------------------|
B|-------------------------------------------------------------------------|
G|---------------15---15-12-15-12---12-17---12p10h12-10-12-10-12--10-14-12-|
D|-12--15--17b^------------------------------------------------------------|
A|-------------------------------------------------------------------------|
E|-------------------------------------------------------------------------|
Tap to rate this tab
# A B C D E F G H I J K L M N O P Q R S T U V W X Y Z