Song name
# A B C D E F G H I J K L M N O P Q R S T U V W X Y Z

Peter Bradley Adams - Under My Skin tab

Voila ma première tablature faite à l'oreille



                         Peter bradlay adams

                            Under my skin


                                                         album : Leavetaking


//capo 2

intro 

d|-------------|---------------|---------------|---------------|
A|------0------|--------0------|--------0------|--------0------|
G|----0---0----|----0----0-----|----2----2-----|----2----2-----|     x3
D|-----0---0---|------0---0----|------0---0----|------2---2----|     
A|-------------|---------------|---------------|---------------|
D|-2-----------|-5-------------|-0-------------|-0-------------|



d|-------------|---------------|
A|------0------|--------0------|
G|----0---0----|----0----------|    
D|-----0---0---|------0---2~4-2|    
A|-------------|---------------|
D|-2-----------|-5-------------|

She whispers to me... 

d|-------------|---------------|---------------|---------------|
A|------0------|--------0------|--------0------|--------0------|
G|----0---0----|----0----0-----|----2----2-----|----2----2-----|     x3
D|-----0---0---|------0---0----|------0---0----|------2---2----|     
A|-------------|---------------|---------------|---------------|
D|-2-----------|-5-------------|-0-------------|-0-------------|



d|-------------|---------------|
A|------0------|--------0------|
G|----0---0----|----0----------|    
D|-----0---0---|------0---2~4-2|    
A|-------------|---------------|
D|-2-----------|-5-------------|

refrain

She's under my skin...

d|------0------|---------------|--------0------|---------------|
A|-------------|--------0------|---------------|--------0------|
G|----0---0----|----0----0-----|----2----2-----|----2----2-----|     x3
D|-----0---0---|------0---0----|------0---0----|------2---2----|     
A|-------------|---------------|---------------|---------------|
D|-2-----------|-5-------------|-0-------------|-0-------------|



d|-------------|---------------|
A|------0------|--------0------|
G|----0---0----|----0----------|    
D|-----0---0---|------0---2~4-2|    
A|-------------|---------------|
D|-2-----------|-5-------------|

voila ^^

par contre la deuxième guitare est un peu plus compliqué j'essaye encore de la retranscrire


                         ___Fred___ (william green)
Tap to rate this tab
 
# A B C D E F G H I J K L M N O P Q R S T U V W X Y Z