Song name
# A B C D E F G H I J K L M N O P Q R S T U V W X Y Z

Peter Broderick - And Its Alright tab

-------------------------------------------------------------------------------
		     AND IT’S ALRIGHT – Peter Broderick
-------------------------------------------------------------------------------
Tabbed by: Adam Wheeldon
Email: adam.wheeldon@homtmail.co.uk

From the 2008 album “Home”.

Tuning: Standard

Part 1 - (Intro/Verse)

e|---------------------------------|-----------------------------------|
B|---------3---------------3-------|---------3---------------3---------|
G|-----2-----2---2-----2-----2---2-|-----2-----2---2-----2-----2---2---|
D|---0---0-----0-----0---0-----0---|---0---0-----------0---0-----0-----|
A|-2---------------2---------------|-----------------------------------|
E|---------------------------------|-2-----------2---3-----------------|

Part 2 – Chorus/rest of the song

e|---------------------------------------------------------------------|
B|---------3---------------2--------------0---------------2------------|
G|-----2-----2---2-----2-----2---2-----2----2---2-----2-----2---2------|
D|---2---2-----2-----2---2-----2-----2---2----2-----2---2-----2--------|
A|-0---------------0---------------0--------------0--------------------|
E|---------------------------------------------------------------------|

e|---------------------------------------------------------------------|
B|---------3---------------2---------------0--------------2------------|
G|-----2-----2---2-----2-----2---2-----2-----2---2-----2----2---2------|
D|---2---2-----2-----2---2-----2-----2---2-----2-----2---2----2--------|
A|---------------------------------------------------------------------|
E|-3---------------3---------------3---------------3-------------------|


That’s it.

The trickiest thing is probably the finger positioning. I recommend the following.

----------
| | | | | |
| 1 | 2 | |
| | | | 4 |
3 | | | | |

Also, use your second finger to barre the 4th and 5th strings for the second part of the 
of song bit. You might have to momentarily lift your ring finger. You will see what I 
when you play it.

Enjoy.

http://www.myspace.com/peterbroderick

============================================================================
Tap to rate this tab
# A B C D E F G H I J K L M N O P Q R S T U V W X Y Z