Song name
# A B C D E F G H I J K L M N O P Q R S T U V W X Y Z

Peter Broderick - With The Notes In My Ears tab

Artist: Peter Broderick
Song: With The Notes In My Ears
Tabbed by: vagicle (vagicle@hotmail.com)

This is admittedly imperfect, but it sounds near enough to my ear, at least to get a
on the song. I suspect there are a few notes that are hammered-on/pulled-off which I've
but you should be able to pick them up by listening to the song. I have no idea how 
the lyrics are; I've transcribed them as I hear them and they seem to make sense in
The [Verse] is played the same as the [Main Riff], but I've repeated the tab to show 
where the lyrics fall.

Enjoy, and I hope it helps!


Capo 3

[Main Riff]

e|----0------------------------------|----0------------------------------|
B|--------1---1-------1-------1------|--------0---0-------0-------0------|
G|------2---------0-------0-------0--|------2---------0---------------0--|
D|--3-----------2-------2-------2----|--3-----------0-------0h2-----0----|
A|----------3-------3-------3--------|-----------------------------------|
E|-----------------------------------|----------3-------3-------3--------|


e|-----------------------------------|-----------------------------------|
B|----1-------1-------1-------1------|----1-------1-------1-------1------|
G|--------0-------0-------0-------0--|--------0-------2-------2-------2--|
D|------2-------2-------2-------2----|------2-------3-------3-------3----|
A|--0-------3-------3-------3--------|--0--------------------------------|
E|-----------------------------------|----------1-------1-------1--------|

Repeat [Main Riff] x 1


[Verse 1]

e|----0------------------------------|----0------------------------------|
B|--------1---1-------1-------1------|--------0---0-------0-------0------|
G|------2---------0-------0-------0--|------2---------0---------------0--|
D|--3-----------2-------2-------2----|--3-----------0-------0h2-----0----|
A|----------3-------3-------3--------|-----------------------------------|
E|-----------------------------------|----------3-------3-------3--------|
   Oh, the once...              I       often   dreamt of...

e|-----------------------------------|-----------------------------------|
B|----1-------1-------1-------1------|----1-------1-------1-------1------|
G|--------0-------0-------0-------0--|--------0-------2-------2-------2--|
D|------2-------2-------2-------2----|------2-------3-------3-------3----|
A|--0-------3-------3-------3--------|--0--------------------------------|
E|-----------------------------------|----------1-------1-------1--------|
   With the notes...                    In my   ears...

[Verse 2]

And the once
I often mimic
With the notes
On my fingers

[Riff 1] x 2
Oo-ooh oo-ooh
Oh ooooh  oooooh


[Verse 3]
And my bed
Is on the floor
Yes, my bed
Is on the floor

[Verse 4]
Of one of the ones
I often dreamt of
With the notes
In my ears


[Bridge]

e|--------|-------------------------------|----------------|
B|--1-----|--0-------0-------0------0-----|--1-------1-----|
G|------2-|------0-------0-------0------0-|------0-------0-|
D|----3---|----0-------0-------0------0---|----2-------2---|
A|--------|-------------------------------|-0-------0------|
E|1-------|3-------3-------3------3-------|----------------|
               That's why I know I can      say        I'm-


e|--0-------0-------0-------0-----|---0-------0-------0-------0------|
B|------1-------1-------1-------1-|-------1-------1-------1--------1-|
G|----2-------2-------2-------2---|-----2-------2-------2-------2----|
D|3-------3-------3-------3-------|-3-------3-------3-------3--------|
A|--------------------------------|----------------------------------|
E|--------------------------------|----------------------------------|
  lu      -       cky              today

e|--3-------3-------3-------3-----|
B|------1-------1-------0-------0-|
G|----2-------2-------2-------2---|
D|3-------3-------3-------3-------|
A|--------------------------------|
E|--------------------------------|

e|-------------------------------|----------------|
B|--0-------0-------0------0-----|--1-------1-----|
G|------0-------0-------0------0-|------0-------0-|
D|----0-------0-------0------0---|----2-------2---|
A|-------------------------------|-0-------0------|
E|3-------3-------3------3-------|----------------|
      That's how I know that it's   time

e|--0-------0-------0-------0-----|---0-------0-------0-------0------|
B|------1-------1-------1-------1-|-------1-------1-------1--------1-|
G|----2-------2-------2-------2---|-----2-------2-------2-------2----|
D|3-------3-------3-------3-------|-3-------3-------3-------3--------|
A|--------------------------------|----------------------------------|
E|--------------------------------|----------------------------------|
  To              be                brave

e|--3-------3-------3-----|
B|------1-------1-------0-|
G|----2-------2-------2---|
D|3-------3-------3-------|
A|------------------------|
E|------------------------|

[Main Riff] x 2
Oo-ooh oo-ooh
Oh ooooh  oooooh

then

e|----0------0-|
B|--------1--1-|
G|------2----0-|
D|--3--------2-|
A|-----------3-|
E|-------------|

Oo-ooh oo-ooh
Oh ooooh  oooooh
Tap to rate this tab
# A B C D E F G H I J K L M N O P Q R S T U V W X Y Z