Song name
# A B C D E F G H I J K L M N O P Q R S T U V W X Y Z

Peter Broderick - Below It tab

Title: Below It
Artist: Peter Broderick
Album: Home
Author: vagicle

[Intro/Verse] x 5:

E|----------------0-------|----------------0-------|
B|----0-----------------0-|----0-----------------0-|
G|----------0-------------|----------0-------------|
D|------10----------10----|------10----------10----|
A|-12---------------------|-12---------------------|
E|-------------12---------|-------------12---------|

E|----------------0-------|----------------0-------|
B|----0-----------------0-|----0-----------------0-|
G|----------0-------------|----------0-------------|
D|------10----------10----|------10----------10----|
A|-12---------------------|-12---------------------|
E|-------------12---------|-------------12---------|

E|----------------0-------|----------------0-------|
B|----0-------------------|----0-------------------|
G|---------12----------12-|---------12----------12-|
D|------12----------12----|------12----------12----|
A|-10----------10---------|-10----------10---------|
E|------------------------|------------------------|

E|----------------0-------|----------------0-------|
B|----0-------------------|----0-------------------|
G|---------12----------12-|---------12----------12-|
D|------12----------12----|------12----------12----|
A|-10----------10---------|-10----------10---------|
E|------------------------|------------------------|

6th time:

E|----------------0-------|----------------0-------|
B|----0-----------------0-|----0-----------------0-|
G|----------0-------------|----------0-------------|
D|------10----------10----|------10----------10----|
A|-12---------------------|-12---------------------|
E|-------------12---------|-------------12---------|
		     In the view of...	

E|----------------0-------|----------------0-------|
B|----0-----------------0-|----0-----------------0-|
G|----------0-------------|----------0-------------|
D|------10----------10----|------10----------10----|
A|-12---------------------|-12---------------------|
E|-------------12---------|-------------12---------|

E|----------------0-------|----------------0-------|
B|----0-------------------|----0-------------------|
G|---------12----------12-|---------12----------12-|
D|------12----------12----|------12----------12----|
A|-10----------10---------|-10----------10---------|
E|------------------------|------------------------|

E|----------------0-------|----------------0-------|
B|----0-------------------|----0-------------------|
G|---------12----------12-|---------12----------12-|
D|------12----------12----|------12----------12----|
A|-10----------10---------|------------------------|
E|------------------------|-10----------10---------|
	
[Chorus] x 4:

E|----------------0-------|----------------0-------|
B|----0-------------------|----0-------------------|
G|----------0-----------0-|----------0-----------0-|
D|------10----------10----|------10----------10----|
A|------------------------|------------------------|
E|-8-----------8----------|-8-----------8----------|

E|------------------------|------------------------|
B|----0-----------0-------|----0-----------0-------|
G|----------0-----------0-|----------0-----------0-|
D|-------9-----------9----|-------9-----------9----|
A|--------------9---------|--------------9---------|
E|-10---------------------|-10---------------------|
 
Repeat through from [Intro] once, then

[Bridge] x 4:

E|----------------0-------|----------------0-------|
B|----0-------------------|----0-------------------|
G|----------0-----------0-|----------0-----------0-|
D|------10----------10----|------10----------10----|
A|------------------------|------------------------|
E|-8-----------8----------|-8-----------8----------|
   And with his fingers he would push...

E|----------------0-------|----------------0-------|
B|----0-------------------|----0-------------------|
G|----------0-----------0-|----------0-----------0-|
D|------9-----------9-----|------9-----------9-----|
A|------------------------|------------------------|
E|-7-----------7----------|-7-----------7----------|

E|----------------0-------|----------------0-------|
B|----0-------------------|----0-------------------|
G|----------0-----------0-|----------0-----------0-|
D|------5-----------5-----|------5-----------5-----|
A|------------------------|------------------------|
E|-3-----------3----------|-3-----------3----------|

E|----------------0-------|----------------0-------|
B|----0-------------------|----3-------------------|
G|----------0-----------0-|----------0-----------0-|
D|------2-----------2-----|------4-----------4-----|
A|------------------------|------------------------|
E|-0-----------0----------|-2-----------2----------|


[Chorus] x 8, then:

E|------------------------|
B|------------------------|
G|--0---------------------|
D|-10---------------------|
A|--x---------------------|
E|--8---------------------|

END
Tap to rate this tab
 
# A B C D E F G H I J K L M N O P Q R S T U V W X Y Z