Peter Broderick - Not At Home tab

"Not at Home", by Peter Broderick. From album "Home".
Tabbed by me, motorhome (m3galomania@hotmail.com).

Capo at 4th

1. INTRO:
|-0-----------------------0----------------------|
|---0-0--0-0--0-0----3-0----0-0--0-0--0-0----3-0-|
|---0-0--0-0--0-0----0-0----0-0--0-0--0-0----0-0-|
|------------------------------------------------|
|------------3----0h2----------------3----0h2----|
|-0-----3-----------------0-----3----------------|

|-2-----3-----------------0----------------------|
|---0-0--0-0--0-0----3-0----0-0--0-0--0-0----3-0-|
|---0-0--0-0--0-0----0-0----0-0--0-0--0-0----0-0-|
|------------------------------------------------|
|------------3----0h2----------------3----0h2----|
|-0-----3-----------------0-----3----------------|

h   = hammer on.
0h2 = strum A-string, and hammer on fret 2 without strumming it.


2. VERSE 1
"I'm not at home ... I have no instruments ... "

The "intro" continuous under the first verse. 
After the first verse, in the "and when I'm home, I'm not at home"-part, its like:


3. CHORUS
|-----0---------0----------0---0---0-------|
|---3---3-----7---7------8---8---8---8---8-|
|--------0---------------------------------|
|------------------------------------------|
|------------------------------------------|
|-5---------7---7---7--8---8---8---8---8---| <<- play it 3 times

I don't know exactly how he plays this part, but this is like.. the base.
Presumably he play more tones than this.


3. Immediately after the chorus or what we should call it, the intro is played once,
and then countinuous in the second verse "I'm not in love..."

|-0-----------------------0----------------------|
|---0-0--0-0--0-0----3-0----0-0--0-0--0-0----3-0-|
|---0-0--0-0--0-0----0-0----0-0--0-0--0-0----0-0-|
|------------------------------------------------|
|------------3----0h2----------------3----0h2----|
|-0-----3-----------------0-----3----------------|

|-2-----3-----------------0----------------------|
|---0-0--0-0--0-0----3-0----0-0--0-0--0-0----3-0-|
|---0-0--0-0--0-0----0-0----0-0--0-0--0-0----0-0-|
|------------------------------------------------|
|------------3----0h2----------------3----0h2----|
|-0-----3-----------------0-----3----------------|


4. The chorus again...
|-----0---------0----------0---0---0-------|
|---3---3-----7---7------8---8---8---8---8-|
|--------0---------------------------------|
|------------------------------------------|   
|------------------------------------------|
|-5---------7---7---7--8---8---8---8---8---|  <<- Play it 3 times.


5. OUTRO
|---------0-------|--------0--------|
|---0---0---0---0-|--0---0---0----0-|
|-----0-------0---|----0--------0---|
|-----------------|-----------------|
|-----------------|-----------------|
|-0---------------|-0---------------|  <<- Play it twice.

Then continue...

|-------0-----------0-----------------| |------0-----------0-----|
|---0-0---0-0---0-0---0-0---0-0--0--0-| |--0-0---0-0---0-0---0-0-|
|----0-----0-----0-----0-----0--------| |---0-----0-----0-----0--|
|-------------------------------------| |------------------------| 
|-3-----2-----------------------------| |------------------------|
|--------------5----3-----2-----5--3--| |0-----------0-----------| 

|------0-----------0-----|
|--0-0---0-0---0-0---0-0-|
|---0-----0-----0-----0--|
|------------------------|
|------------------------|
|0-----------0-----------| Play it 4 times.

The same part again...

|-------0-----------0-----------------| |------0-----------0-----|
|---0-0---0-0---0-0---0-0---0-0--0--0-| |--0-0---0-0---0-0---0-0-|
|----0-----0-----0-----0-----0--------| |---0-----0-----0-----0--|
|-------------------------------------| |------------------------| 
|-3-----2-----------------------------| |------------------------|
|--------------5----3-----2-----5--3--| |0-----------0-----------| 

|------0-----------0-----|
|--0-0---0-0---0-0---0-0-|
|---0-----0-----0-----0--|
|------------------------|
|------------------------|
|0-----------0-----------| Play it 4 times.

And again... and again...
Play it until the end, or as long as you want to.
You got to be pretty quick in the fingers in the outro. That's why I placed the 
tones so tight, cause they have to be played fast. But if you want to play this 
song, you probably already know that :P

This is my first tab, hope it's ok. I know the tones are :P
Tap to rate this tab
 
# A B C D E F G H I J K L M N O P Q R S T U V W X Y Z