Song name
# A B C D E F G H I J K L M N O P Q R S T U V W X Y Z

Peter Fox - Lok Auf 2 Beinen tab

-------------------------------------------------------------------------------
			     Lok auf 2 Beinen - Peter Fox
-------------------------------------------------------------------------------
Tabbed by: Martin Messner
Email: BigBonsai@hotmail.de

Tuning: E-standart


//////////////////////////////////////////////
//                                          //
//  RATING THIS TAB TAKES ABOUT 5 SECONDS   //
//  AND HELPS ME TO IMPROVE MY WORK         //
//                                          //
//////////////////////////////////////////////


Ape-like "ah"
e|----------------7-------------------------------7----------------------|
B|---------8-8-10----------8-8-10----------8-8-10----------8-8-10--------|
G|-------9---------------9--------8------9---------------9--------9------|
D|-----------------------------------------------------------------------|
A|-----------------------------------------------------------------------|
E|-----------------------------------------------------------------------|
    |   |           |   |           |   |           |   |
Bass/"Lok"-Sound    |   |           |   |           |   |
    |   |           |   |           |   |           |   |
G|-----------------------------------------------------------------------|
D|--2---2-----------2---2-----------2---2-----------2---2---5------------|
A|-----------------------------------------------------------------------|
E|-----------------------------------------------------------------------|

Trumpets(Chorus)                               Trumpets(Verses)
e|-------------------------|                   |-------------------------|
B|---------13-11-14-13~~~~~|                   |----------------7--------|
G|-------------------------|                   |-------------------------|
D|--4~~~~~~----------------|                   |-2(Tremolo)~~~-----------|
A|-------------------------|                   |-------------------------|
E|-------------------------|                   |-------------------------|
                                                The 7th-fret-part appears
						only once a verse!

Thanks to all the Peter Fox Fans out there! Stadtaffe ist einfach spitze =)
Tap to rate this tab
# A B C D E F G H I J K L M N O P Q R S T U V W X Y Z