Song name
# A B C D E F G H I J K L M N O P Q R S T U V W X Y Z

Peter Frampton - While My Guitar Gently Weeps tab

WHILE MY GUITAR GENTLY WEEPS
As Recorded by Peter Frampton
from the Album “Now”
original song by The Beatles

Okay, so this is my first tab ever, and I only did it because I
felt kind of obligated to do it since I only found another two other tabs online and (no 
to the guys who posted them) they didn't sound anything like the song (at least when I 
them).
So being the awesome cover song it is, i thought it deserved a proper tab. There are a 
things however I think I need to clear for you before you play this. First, the legend is 
the bottom of this tab.
Second, I divide the intro into sort of packages and put the seconds between each 2 
as heard on the “Now” album.
And fourth, (and perhaps the least important) a recommendation for the first package: I 
the 1st and 3rd fingers for the 5th and 7th fret, and the 4th finger for the hammer on, 
did a little tapping with my right hand for the 10p7.
So anyway, enjoy the tab and if you believe there's anything wrong with it (i don't 
care, but still) you're more than welcome to send me a recommendation to my e-mail.
Pd: I believe the song is played with a bit of distortion and a slight delay
so don't be afraid of experimenting with these effects

		        (tap)  0:03
e:------------------------------|------------------------------|
B:------------------------------|------------------------------|
G:--5h7~--5h7-5h7-5h7-----------|------6/7--7-7--8p7--7~-------|
D:--7--~--7---7---7-----10p7----|------6/7--7-7-----10---------|
A:------------------------------|------------------------------|
E:------------------------------|------------------------------|

		    0:09
e:-------------------|-----------------------------------------|
B:-------------------|-----------------------------------------|
G:-------------------|-----------------------------------------|
D:--10-7-7~--10-7----|-----5-----------------------------------|
A:----------------7~-|---7---5b(1/2)~---5b(1/2)----------------|
E:-------------------|-----------------8--------8p5\3p0~-------|

	     0:15	       0:18
e:------------|----5-8-5---10b~-|---10b-p8-10------------------|
B:------------|--5-------5------|-------------8h10--8----------|
G:------------|-----------------|---------------------9-7b(1/2)|
D:------------|-----------------|------------------------------|
A:------------|-----------------|------------------------------|
E:--(h9h10)~--|-----------------|------------------------------|

			   0:25
e:--------------------------|----------------------------------|
B:--------------------------|----------------------------------|
G:-------7-----7b7b7b-(p5)~-|----5-7--(1/2)b7*-5-7-5---7-5-----|
D:--10-7--10-7--------------|--7-------------------------------|
A:--------------------------|----------------------------------|
E:--------------------------|----------------------------------|

	             0:32			              0:38
e:--------------------|----------------------------------------|
B:--------------------|----------------------------------------|
G:--7b(1/2)-p5h7~-----|--------5-------------------------------|
D:---------------(7~)-|----5-7---9-5---7-5---------------------|
A:--------------------|--7-----------7-----7-5-----------------|
E:--------------------|------------------------8-5\3p0-(h5)~---|
                                                             0:47
e:------------------------------------------------------------|
B:------------------------------------------------------------|
G:------------------------------------------------------------|
D:-----7-9-10-7~----9b(1/2)p7~----9-10-10/12~-----------------|
A:--7---------------------------------------------------------|
E:------------------------------------------------------------|

		           0:51			             1:00
e:--------------------------|-----------------0~--------------|
B:--------------------------|--------------0~-----------------|
G:---5-7-7b--b7*-5-4~-------|-----------2~--------------------|
D:--------------------5~----|--------3~-----------------------|
A:-----------------------5~-|-----3~--------------------------|
E:--------------------------|--1~-----------------------------|
			      (sort of like an F chord)

Legend:
h: hammer on
p: pull off
/\: slide
~: vibratto
(): optional or very soft sound
b: full bend – a whole tone bend – 2 higher frets bend
b(1/2): half bend – half a tone bend – 1 higher fret bend
b7*: it means you pick the string already bent and release the bend to the original note
Tap to rate this tab
 
# A B C D E F G H I J K L M N O P Q R S T U V W X Y Z