Song name
# A B C D E F G H I J K L M N O P Q R S T U V W X Y Z

Peter Frampton - Penny For Your Thoughts tab

Penny For Your Thoughts
Peter Frampton, 1975

Meticulously tabbed at slow speed by VJ and checked against youtube performances by the 
artist. All tabs tabs on the net Iíve seen are wrong.
Open G tuning. Bottom 4 strings played w/ thumb or pick.

THEME:
(repeat 3x  )
d:----12-p-10-p-9-p-0-------0------|----------------0-----------------|
B:------------------0--------------|--0-h-1---------------1------0----|
G:--------------------------0------|----------------------------------|
D:------------------0--------------|-----------0----------------------|
G:----0----------------------------|--0-h-2--------------------(2s)*--|
D:---------------------------------|----------------------------------|
                                                  *2 third time thru.

d:---------------------------------|----------------------------------|
B:---0----------------7+-----------|----12+---------------------------|
G:---0----------------7+-----------|----12+---------------------------|
D:---------------------------------|----------------------------------|
G:---0----------------7+-----------|----12+---------------------------|
D:---------------------------------|----------------------------------|

(THEME)

d:---------------------------------|----------------------------------|
B:---0-----1-------2--------3------|-----5-------7-------8------10----|
G:---------------------------------|----------------------------------|
D:---------------------------------|----------------------------------|
G:---0-----2-------3--------4------|-----5-------7-------9------11----|
D:---------------------------------|----------------------------------|

(THEME)

d:---------------------------------|----------------------------------|
B:---0-----1-------2--------3------|-----5-------4-------3-------2----|
G:---------------------------------|----------------------------------|
D:---------------------------------|----------------------------------|
G:---0-----2-------3--------4------|-----5-------4-------3-------2----|
D:---------------------------------|----------------------------------|

d:---------------------------------|-------0--------------------------|
B:---------------------------------|-------1--------------------------|
G:---------------------------------|-------0--------------------------|
D:---------------------------------|-------0--------------------------|
G:---------------------------------|-------2--------------------------|
D:---------------------------------|-------0--------------------------|
                                           (strum gently)
(THEME)

d:---------------------------------|----------------------------------|
B:---0-------------1---------------|-----2---------------3------------|
G:---------------------------------|----------------------------------|
D:---------------------------------|----------------------------------|
G:---0-------------2---------------|-----3---------------4------------|
D:---------------------------------|----------------------------------|



d:-------------0-------------------|-------------3--------------------|
B:-----5----------------5-------5--|-----5-----------------5----------|
G:---------------------------------|----------------------------------|
D:---------5-----------------------|---------5-----------------5s-----|
G:--5-----------------------5------|--5-------------------------------|
D:---------------------------------|----------------------------------|

d:-------------0-------------------|-------------1--------------------|
B:-----3----------------3----------|-----3-----------------3-------3--|
G:------------------------------0--|----------------------------------|
D:---------3-----------------------|---------3-----------------3------|
G:--3-----------------------3------|--3-------------------------------|
D:---------------------------------|----------------------------------|

                                                                play 2x
d:---------------------------------|----------------------------------|
B:-------0------------1------------|--1s3------------3-----3----------|
G:---------------------------------|----------------------------------|
D:---------------------------------|------------0---------------------|
G:--0----0------------2------------|--2s4-----------------------4-----|
D:---------------------------------|----------------------------------|


d:-------------0-------------------|-------------3--------------------|
B:-----5----------------5-------5--|-----5-----------------5----------|
G:---------------------------------|----------------------------------|
D:---------5-----------------------|---------5-----------------5s-----|
G:--5-----------------------5------|--5-------------------------------|
D:---------------------------------|----------------------------------|

d:-------------0-------------------|-------------1--------------------|
B:-----3----------------3----------|-----3-----------------3----------|
G:------------------------------0--|----------------------------------|
D:---------3-----------------------|---------3-----------------3s-----|
G:--3-----------------------3------|--3-------------------------------|
D:---------------------------------|----------------------------------|

d:-------------0-------------------|-------------5--------------------|
B:-----7----------------7-------7--|-----7-----------------7----------|
G:---------------------------------|----------------------------------|
D:---------7-----------------------|---------7-----------------7s-----|
G:--7-----------------------7------|--7-------------------------------|
D:---------------------------------|----------------------------------|

d:-------------0-------------------|-------------0--------------------|
B:-----5----------------5----------|-----3-----------------3----------|
G:---------------------------------|----------------------------------|
D:---------5-----------------------|---------3-----------------3------|
G:--5-----------------------5s-----|--3-------------------------------|
D:---------------------------------|----------------------------------|

(THEME)

d:---------------------------------|----------------------------------|
B:---0-----1-------2--------3------|-----5-------7-------8------10----|
G:---------------------------------|----------------------------------|
D:---------------------------------|----------------------------------|
G:---0-----2-------3--------4------|-----5-------7-------9------11----|
D:---------------------------------|----------------------------------|

(THEME)

d:---------------------------------|----------------------------------|
B:---0----------------7+-----------|----12+---------------------------|
G:---0----------------7+-----------|----12+---------------------------|
D:---------------------------------|----------------------------------|
G:---0----------------7+-----------|----12+---------------------------|
D:---------------------------------|----------------------------------|
Tap to rate this tab
 
# A B C D E F G H I J K L M N O P Q R S T U V W X Y Z