Song name
# A B C D E F G H I J K L M N O P Q R S T U V W X Y Z

Peter Frampton - Do You Feel Like We Do tab

-----------------------------------------------------------------------------------|
-----------------------------------------------------------------------------------|
-----------------------------------------------------------------5-7---------------|
-------------(3)--------------3---5(7)-(7)5-3--5-3--------4-5-5/7~---5-3-5-3-------|
----------3/5~--5---------3/5--5~-----------------5-5~-3-5------------------5-3-5~-|
-1-3-1-3-1-------1-3-1-3-1---------------------------------------------------------|

-----------------------------------------------------------------------------------|
-----------------------------------------------------------------------------------|
------------------------------------------------------5h7-5------------------------|
------------------3-5p3-3-5p3---------4-5-5/7-4-5-5/7~---7-5h7-3h5-3---3-5-5(7)5p3-|
3--------------3/5-----5-----5-3---3-5-------5--------------------5-3h5------------|
-3(4)3-1-3-3-1------------------3h5------------------------------------------------|

           (Talk Box Mimic): Do you feel do you feel like I do I want to thank you
----------------------------------------------------------------------------------|
----------------------------------------------------------------------------------|
----------------------------------------------------------------------------------|
5-3-5-3-3p0-0-3p0-0-3p0-0-3h4~-------3----------3-----3--2---------------3(4)-----|
-5-----5----------------------3--5-------3--5---------------5~-3--5---3--------5~-|
----------------------------------------------------------------------------------|

-----------------------------------------------------------------------5-7-7(8)-|
------------------------------------------------------------------5-7-8---------|
-------------------------------------------------------------5-5-7--------------|
------3-5-5(7)-5-3-5-3~------3-5p3---------2-3-4-5~--3-5-5/7--------------------|
--3-5--------------------3h5~-----------3-5-------------------------------------|
-----------------------------------\1~------------------------------------------|

-7-5h7p5--7p5-5-----------------------------------------------------------------|
--------8----8-6p5--------------------------------------------------------------|
------------------7-5~-5h7-5----------------------------------------------------|
--------------------------7--5h7-3h5-3-------------------3-2--3-2-0-3-2-0-2-3-4-|
------------------------------------5-3h5-3------------3------------------------|
-----------------------------------------5-3h5-1h3-3/5--------------------------|

--------------------------------------------------------------------------------|
----------------10(11)----------------------------------------------------------|
----------------10(11)-------------------------------14-14~14-13-12-10-12-12-12-|
-----10-12-12-12-----------12-12-12-14(15)14-12-14-12---------------------------|
12-12-----------------12-14-----------------------------------------------------|
--------------------------------------------------------------------------------|

---------------------------------------------------------------------------------|
-----------------10-------------------------------10-12-10-13(15)~13(15)~13(15)~-|
-12(14)12p10-12--10-12-10-12-10-12-12(14)12p10-12-10-12-10-----------------------|
---------------12---12-10-12---------------------12------------------------------|
---------------------------------------------------------------------------------|
---------------------------------------------------------------------------------|

--------------------------------------------------------------------------------|
-13(15)-13-10-13-10-10--10-10----10-12-12(13)(13)12-10-12-10~-------------------|
-------------------12--12--10----10-12-12(13)(13)12-10-12-10~--9-10-9h10p9--9---|
-----------------------------12-12----------------------------------------12-10-|
--------------------------------------------------------------------------------|
--------------------------------------------------------------------------------|

---------------------------------------------------------------------------------|
---------------------------------------------------------------------------------|
-------------------------------------------------------------------------9h10h12-|
------------------------------------------------------------10--10-12~-12--------|
12-11-10-8-10-8~------10-8--10-8--10-8--10-8------8-10-10/12--12-----------------|
-----------------10-10----10----10----10----10-10--------------------------------|

--------------------------------------------------------------------------------|
10-13p10(x25)--10-12-12h13p12-10~---------------------10------10----------------|
----------------------------------12(14)-(14)12-10-12-10------10-12-12(14)12p10-|
--------------------------------------------------------10--12------------------|
--------------------------------------------------------------------------------|
--------------------------------------------------------------------------------|

                                                                (faintly with wah)
-------------------------------------------------------------------|
-------------------------------------------------------------------|
-12-10-9-----------------------------------------------------------|
---12---12-10------------------------------------------------------|
--------------12-11-10-8---------------------------(3)-(5)-(5)-(5)-|
-------------------------10~--5-4-3-1~-2-3-4-5---------------------|

Do you fe-el like I  do-oo? That's alright, That's alright, if you'd li-ke
---------------------------------------------------------------------------|
---------------------------------------------------------------------------|
---------------------------------------------------------------------------|
-----------------------------3-----3---------3-----3-----------------------|
------------------------5~-----------5---------------5-------3--------3h5--|
-1---3--3(5)3--1--1--1-------------------------------------------5---------|

feel you'd li-ke, good time, were gon-na ha-ve a go-od time, good time, good time
---------------------------------------------------------------------------------|
---------------------------------------------------------------------------------|
-----------------------------------------------5---------------------------------|
-------------------3-----------3---5-3----5\7----5(6)5--3------------------------|
-3-----3---3h5----------5------------------------------------------5----------5--|
---------------------------------------------------------------1---------1-------|

good time, good time, good time
---------------------------------------------------------------------------------|
-------------------------------10\----------------10-12-10(12)-12(13)-12(13)-10~-|
-------------------------------10\--------9-11-12--------------------------------|
------------------------------------10-12----------------------------------------|
------5---------------------5----------------------------------------------------|
-1---------1-----3-----1---------------------------------------------------------|

-------------------------------------------------------------|
-------------------------------------------------12p13-13p15-|
12h14p12-11h12~-10h12p10-9---------------11-12-14------------|
--------------------------12p10-12~-12-14--------------------|
-------------------------------------------------------------|
-------------------------------------------------------------|

-10p12-12(14)~--12(14)-12-10-12-13-15-15(17)~--15(17)-15-13-12-13-12-10---------|
-----------------------------------------------------------------------13-12-10-|
--------------------------------------------------------------------------------|
--------------------------------------------------------------------------------|
--------------------------------------------------------------------------------|
--------------------------------------------------------------------------------|
                                                           [D]       [F]
-----------------------------------------------------------------------------------|
----------------------10-12-10~--10-9-------------------------7-8-7-----10-11-10---|
12-10-9--------9-11-12---------------12~--10h12-10h11--------7-----7---10-------10-|
-------12-10-12--------------------------------------12-10~-7---------10-----------|
-----------------------------------------------------------------------------------|
-----------------------------------------------------------------------------------|

                                                           Whoa(Voice and Talk box)
[C]                                [D]      [F]         [C]        [D]
------------------------------------------------------------2----------------------|
--5-6-5-------12-10--12-10----7-8-7----10-11-10-----5-6-5---3----------------------|
-5-----5------12-10--12-10---7-----7--10-------10--5-----5--2----------------------|
5--------10\12-----12-------7--------10-----------5---------0----------------------|
-----------------------------------------------------------------------------------|
-----------------------------------------------------------------------------------|
Tap to rate this tab
 
# A B C D E F G H I J K L M N O P Q R S T U V W X Y Z