Song name
# A B C D E F G H I J K L M N O P Q R S T U V W X Y Z

Peter Frampton - All I Want To Be tab

Artist: Peter Frampton
Song: All I Want to be (is by your side)
Tabbed by:Carlos Ramirez
Tuning: E A D G B D


INTRO:
D|---------5-----4-------5---4-------4---x-------0---0---0--------|
B|---------5-----5-------5---5-------4---5-------3---3---3--------|
G|---------5-----5-------5---5-------4---5-------0---0---2--------| (2times)
D|---------0-----0-------0---0-------4---5-------2---0---0--------|
A|-----------------------------------x---3-------3---2------------|
E|-----------------------------------4---------------3------------|

VERSE:
D|---0--------------------------0-----------------------------------------|
B|---3--------------------------3-----------------------------------------|
G|---2--------------------------0-----------------------------------------|
D|---0--------------------------2-----------------------------------------|
A|------------------------------3-----------------------------------------|
E|------------------------------------------------------------------------|
      do what you do      don't bring me down
     don't stand alone you might turn to stone


D|------0-----------------0--------------------0---------------------------|
B|------3-----------------3--------------------3---------------------------|
G|------0-----------------0--------------------2---------------------------|
D|------2-----------------0--------------------0---------------------------|
A|------3-----------------2------------------------------------------------|
E|------------------------3------------------------------------------------|
       I went to the     doctor           he's just another clown
       I'm sure there is a pill for that       you're on your own


CHORUS:
D|-5-------------4----------4---------x--4-------------x-----0---0----0---|
B|-5-------------5----------4---------5--4-------------5-----3---3----3---|
G|-5-------------5----------4---------5--4-------------5-----0---0----2---|
D|-0-------------0----------4---------5--4-------------5-----2---0----0---|
A|--------------------------x---------3--x-------------3-----3---2--------|
E|--------------------------4------------4-------------=---------3--------|
      can't you see what it's doing to me   all I wanna be is by your side
       I don't care if they cut my   hair   all I wanna be is by your side

D|---4--------------x---------0----0---0--|
B|---4--------------5---------3----3---3--|
G|---4--------------5---------0----0---2--|
D|---4--------------5---------2----0---0--|
A|---x--------------3---------3----2------|
E|---4-----------------------------3------|
         all I wanna be is     by your side


 INSTRUMENTAL:
D|---------7--7--7--7--7-----0--0--0---0--0---0--0---------0-----|
B|---------7--7--8--7--7-----0--0--0---0--0---3--3---------3-----|
G|---------7--7--7--7--7-----5--7--9---7--5---0--0---------2-----|
D|---------0--0--0--0--0-----7--9--10--9--7---2--0---------0-----|
A|---------------------------0--0--0---0--0---3--2--x-x-x--------|
E|-----------------------------------------------3--1-3-1--------|

D|---7--7--7-7-7-7-7---0-0-0-0-0-0----------0---0----0--|
B|---7--7--8-7-7-7-7---0-0-0-0-0-0----------3---3----3--|
G|---7--7--7-7-7-7-7---5-5-5-5-4/5----------0---0----2--|
D|---0--0--0-0-0-0-0---7-7-7-7-6/7----------2---0----0--|
A|---------------------0-0-0-0-0-0----------3---2-------|
E|----------------------------------------------3-------|
-
  VERSE,CHORUS...


D|-4-------------x---------0-----0---------0--|
B|-4-------------5---------3-----3---------3--|
G|-4-------------5---------0-----0---------2--|
D|-4-------------5---------2-----0---------0--|
A|-x-------------3---------3-----2------------|
E|-4-----------------------------3------------|
    ..all I wanna be   is  by.. your ..    side
Tap to rate this tab
 
# A B C D E F G H I J K L M N O P Q R S T U V W X Y Z