Song name
# A B C D E F G H I J K L M N O P Q R S T U V W X Y Z

Peter Frampton - Its A Plain Shame tab

-----------------------------------------------------------------------
	       It's A Plain Shame - Peter Frampton
-----------------------------------------------------------------------
Tabbed by: TaterSalad101	
Email: FramptonBlackmore12@thevortex.com

Tuning: Standard Tuning

Intro:

e|-------------------------------------------------------------------|
B|-------------------------------------------------------------------|
G|-------------------------------------------------------------------|
D|--5----------------------------------------------------------------|
A|--3--5----5-5-5-5-5-5--7-9-10-9--10-9------------------------------|
E|-----3----2-3-2-3-2-3--5-5-5--5--5--5------------------------------|

Fill:

e|-------------------------------------------------------------------|
B|-------------------------------------------------------------------|
G|------9----------11------------------------------------------------|
D|--/11---11---/11---------/11---------------------------------------|
A|-------------------------------------------------------------------|
E|-------------------------------------------------------------------|

Chorus:
e|-------------------------------------------------------------------|
B|-------------------------------------------------------------------|
G|-------------------------------------------------------------------|
D|--5----------------------------------------------------------------|
A|--3--5----5-5-5-5-5-5--7-9-10-9--10-9------------------------------|
E|-----3----2-3-2-3-2-3--5-5-5--5--5--5------------------------------|


Order:
Intro
Fill
Chorus
Fill
Chorus

Repeat order till' end of song


| /  slide up
| \  slide down
| h  hammer-on
| p  pull-off
| ~  vibrato
| +  harmonic
| x  Mute note
Tap to rate this tab
# A B C D E F G H I J K L M N O P Q R S T U V W X Y Z