Song name
# A B C D E F G H I J K L M N O P Q R S T U V W X Y Z

Peter Furler - Im Alive tab

-------------------------------------------------------------------------------
                             Im Alive  Peter Furler
-------------------------------------------------------------------------------
Tabbed by: George Juggles
E-mail: nwells522@hotmail.com

Tuning: Standard

Intro

e|---------------------------------------------------------------------------|
B|---------------------------------------------------------------------------|
G|---------------------------------------------------------------------------|
D|-------5-------5------------5-------5--------------------------------------|
A|---3-------3------------3-------3------------------------------------------|
E|---------------------------------------------------------------------------|

Verse

e|---------------------------------------------------------------------------|
B|---------------------------------------------------------------------------|
G|---------------------------------------------------------------------------|
D|-------5-------5------------10-------10-------------12--------12-----------|
A|---3-------3------------8--------8-------------10--------10----------------|
E|---------------------------------------------------------------------------|

e|---------------------------------------------------------------------------|
B|---------------------------------------------------------------------------|
G|---------------------------------------------------------------------------|
D|-------5-------5-----------5-----5-----5-----5-----5-----5-----5-----5-----|
A|---3-------3------------3-----3-----3-----3-----3-----3-----3-----3--------|
E|---------------------------------------------------------------------------|

e|---------------------------------------------------------------------------|
B|---------------------------------------------------------------------------|
G|---------------------------------------------------------------------------|
D|-----10-----10-----10-----10-----10-----10-----10-----10------12------12---|
A|--8------8------8------8------8------8------8------8------10------10-------|
E|---------------------------------------------------------------------------|

e|---------------------------------------------------------------------------|
B|---------------------------------------------------------------------------|
G|---------------------------------------------------------------------------|
D|------12------12------12------12------12------12-----5-----5-----5------5--|
A|--10------10------10------10------10------10------3-----3-----3-----3------|
E|---------------------------------------------------------------------------|

e|-----------------------------------------------------------------------------|
B|-----------------------------------------------------------------------------|
G|-----------------------------------------------------------------------------|
D|-----5-----5-----5-----5-----------------------------------------------------|
A|--3-----3-----3-----3--------------------------------------------------------|
E|-----------------------------------------------------------------------------|

Chorus

e|---------------------------------------------------------------------------|
B|---------------------------------------------------------------------------|
G|---5-5----5---5----5-5----5---5----10-10---10----10-----10-10---10---10----|
D|---5-5----5---5----5-5----5---5----10-10---10----10-----10-10---10---10----|
A|---3-3----3---3----3-3----3---3-----8--8----8-----8------8--8----8----8----|
E|---------------------------------------------------------------------------|

e|---------------------------------------------------------------------------|
B|---------------------------------------------------------------------------|
G|---5-5----5---5----5-5----5---5----10-10---10----10-----10-10---10---10----|
D|---5-5----5---5----5-5----5---5----10-10---10----10-----10-10---10---10----|
A|---3-3----3---3----3-3----3---3-----8--8----8-----8------8--8----8----8----|
E|---------------------------------------------------------------------------|


e|---------------------------------------------------------------------------|
B|---------------------------------------------------------------------------|
G|-----------------------------------5-5----5---5----5-5----5---5------------|
D|---7-7----7---7----5-5----5---5----5-5----5---5----5-5----5---5------------|
A|---7-7----7---7----5-5----5---5----3-3----3---3----3-3----3---3------------|
E|---5-5----5---5----3-3----3---3--------------------------------------------|

Bridge

e|-------------------------------------------|-------------------------------|
B|------------------------------------------o|-------------------------------|
G|-----------------5--------------------5----|-------------------------------|
D|---7------5------5------7------5------5----|-------------------------------|
A|---7------5------3------7------5------3---o|-------------------------------|
E|---5------3-------------5------3-----------|-------------------------------|



Hope you enjoy it. I will try to do more Peter Furler tab.


************************************

| /   slide up
| \   slide down
| h   hammer-on
| p   pull-off
| ~   vibrato
| +   harmonic
| x   Mute note
| b   Bend
| pb  Pre-bend
| br  Bend release
| pbr Pre-bend release
| brb Bend release bend

************************************
Tap to rate this tab
# A B C D E F G H I J K L M N O P Q R S T U V W X Y Z