Song name
# A B C D E F G H I J K L M N O P Q R S T U V W X Y Z

Peter Furler - Glory To The King tab

-------------------------------------------------------------------------------
                             Glory to the King  Peter Furler
-------------------------------------------------------------------------------
Tabbed by: George Juggles
E-mail: 

Tuning: Standard EADGBe 


Intro
Guitar 1
e|---------------------------------------------------------------------------|
B|---------------------------------------------------------------------------|
G|---------------------------------------------------------------------------|
D|---10-10-10-10-10-10-10-10-10-10-10-10-10-10-10-10-7-7-7-7-7-7-7-7-7-7-7-7-|
A|---10-10-10-10-10-10-10-10-10-10-10-10-10-10-10-10-7-7-7-7-7-7-7-7-7-7-7-7-|
E|---8--8--8--8--8--8--8--8--8--8--8--8--8--8--8--8--5-5-5-5-5-5-5-5-5-5-5-5-|

e|---------------------------------------------------------------------------|
B|---------------------------------------------------------------------------|
G|-----------10-10-10-10-10-10-10-10-10-10-10-10-10-10-10-10-10-10-10-10-----|
D|---7-7-7-7-10-10-10-10-10-10-10-10-10-10-10-10-10-10-10-10-10-10-10-10-10-10
A|---7-7-7-7-8--8--8--8--8--8--8--8--8--8--8--8--8--8--8--8--8--8--8--8--10-10
E|---5-5-5-5-------------------------------------------------------------8--8|

e|----------------------------------------------------------Play 2 times-----|
B|---------------------------------------------------------------------------|
G|---------------------------------------------------------------------------|
D|---10-10-10-10-10-10-10-10-10-10-10-10-10-10-------------------------------|
A|---10-10-10-10-10-10-10-10-10-10-10-10-10-10-------------------------------|
E|---8--8--8--8--8--8--8--8--8--8--8--8--8--8--------------------------------|

Guitar 2
e|---------------------------------------------------------------------------|
B|------3----3-------5----5-------6----6-------5----5------------------------|
G|---5-----5------5-----5------5-----5------5-----5--------------------------|
D|---------------------------------------------------------------------------|
A|---------------------------------------------------------------------------|
E|---------------------------------------------------------------------------|

Verse
Guitar 1
B|---------------------------------------------------------------------------|
G|---------------------------------------------------------------------------|
D|---10-10-10-10-10-10-10-10-10-10-10-10-10-10-10-10-7-7-7-7-7-7-7-7-7-7-7-7-|
A|---10-10-10-10-10-10-10-10-10-10-10-10-10-10-10-10-7-7-7-7-7-7-7-7-7-7-7-7-|
E|---8--8--8--8--8--8--8--8--8--8--8--8--8--8--8--8--5-5-5-5-5-5-5-5-5-5-5-5-|

e|---------------------------------------------------------------------------|
B|---------------------------------------------------------------------------|
G|-----------10-10-10-10-10-10-10-10-10-10-10-10-10-10-10-10-10-10-10-10-----|
D|---7-7-7-7-10-10-10-10-10-10-10-10-10-10-10-10-10-10-10-10-10-10-10-10-10-10
A|---7-7-7-7-8--8--8--8--8--8--8--8--8--8--8--8--8--8--8--8--8--8--8--8--10-10
E|---5-5-5-5-------------------------------------------------------------8--8|

e|----------------------------------------------------------Play 2 times-----|
B|---------------------------------------------------------------------------|
G|---------------------------------------------------------------------------|
D|---10-10-10-10-10-10-10-10-10-10-10-10-10-10-------------------------------|
A|---10-10-10-10-10-10-10-10-10-10-10-10-10-10-------------------------------|
E|---8--8--8--8--8--8--8--8--8--8--8--8--8--8--------------------------------|

Guitar 2
e|---------------------------------------------------------------------------|
B|------3----3-----3----3-----5----5-----5----5-----6----6-----6----6-----5--|
G|---5-----5----5-----5----5-----5----5-----5----5-----5----5-----5----5-----|
D|---------------------------------------------------------------------------|
A|---------------------------------------------------------------------------|
E|---------------------------------------------------------------------------|

e|-----------------Play 2 times----------------------------------------------|
B|-----5---------------------------------------------------------------------|
G|---5----5------------------------------------------------------------------|
D|---------------------------------------------------------------------------|
A|---------------------------------------------------------------------------|
E|---------------------------------------------------------------------------|

Pre-Chorus
Guitar 1
B|---------------------------------------------------------------------------|
G|---------------------------------------------------------------------------|
D|---10-10-10-10-10-10-10-10-10-10-10-10-10-10-10-10-7-7-7-7-7-7-7-7-7-7-7-7-|
A|---10-10-10-10-10-10-10-10-10-10-10-10-10-10-10-10-7-7-7-7-7-7-7-7-7-7-7-7-|
E|---8--8--8--8--8--8--8--8--8--8--8--8--8--8--8--8--5-5-5-5-5-5-5-5-5-5-5-5-|

e|---------------------------------------------------------------------------|
B|---------------------------------------------------------------------------|
G|-----------10-10-10-10-10-10-10-10-10-10-10-10-10-10-10-10-10-10-10-10-----|
D|---7-7-7-7-10-10-10-10-10-10-10-10-10-10-10-10-10-10-10-10-10-10-10-10-10-10
A|---7-7-7-7-8--8--8--8--8--8--8--8--8--8--8--8--8--8--8--8--8--8--8--8--10-10
E|---5-5-5-5-------------------------------------------------------------8--8|

e|--------------------------------------------------------------------- -----|
B|---------------------------------------------------------------------------|
G|---------------------------------------------------------------------------|
D|---10-10-10-10-10-10-10-10-10-10-10----------------------------------------|
A|---10-10-10-10-10-10-10-10-10-10-10----------------------------------------|
E|---8--8--8--8--8--8--8--8--8--8--8-----------------------------------------|

Guitar 2
e|---------------------------------------------------------------------------|
B|------3----3-----3----3-----5----5-----5----5-----6----6-----6----6-----5--|
G|---5-----5----5-----5----5-----5----5-----5----5-----5----5-----5----5-----|
D|---------------------------------------------------------------------------|
A|---------------------------------------------------------------------------|
E|---------------------------------------------------------------------------|

e|---------------------------- ----------------------------------------------|
B|-----5---------------------------------------------------------------------|
G|---5----5------------------------------------------------------------------|
D|---------------------------------------------------------------------------|
A|---------------------------------------------------------------------------|
E|---------------------------------------------------------------------------|

Chorus
Guitar 1
B|---------------------------------------------------------------------------|
G|---------------------------------------------------------------------------|
D|---10-10-10-10-10-10-10-10-10-10-10-10-10-10-10-10-7-7-7-7-7-7-7-7-7-7-7-7-|
A|---10-10-10-10-10-10-10-10-10-10-10-10-10-10-10-10-7-7-7-7-7-7-7-7-7-7-7-7-|
E|---8--8--8--8--8--8--8--8--8--8--8--8--8--8--8--8--5-5-5-5-5-5-5-5-5-5-5-5-|

e|---------------------------------------------------------------------------|
B|---------------------------------------------------------------------------|
G|-----------10-10-10-10-10-10-10-10-10-10-10-10-10-10-10-10-10-10-10-10-----|
D|---7-7-7-7-10-10-10-10-10-10-10-10-10-10-10-10-10-10-10-10-10-10-10-10-10-10
A|---7-7-7-7-8--8--8--8--8--8--8--8--8--8--8--8--8--8--8--8--8--8--8--8--10-10
E|---5-5-5-5-------------------------------------------------------------8--8|

e|----------------------------------------------------------Play 2 times-----|
B|---------------------------------------------------------------------------|
G|---------------------------------------------------------------------------|
D|---10-10-10-10-10-10-10-10-10-10-10-10-10-10-------------------------------|
A|---10-10-10-10-10-10-10-10-10-10-10-10-10-10-------------------------------|
E|---8--8--8--8--8--8--8--8--8--8--8--8--8--8--------------------------------|

Guitar 2
e|----------------------------------------Play 2 times-----------------------|
B|---------------------------------------------------------------------------|
G|----------------------10---------------------------------------------------|
D|---10--------7--------10--------10-----------------------------------------|
A|---10--------7--------8---------10-----------------------------------------|
E|---8---------5------------------8------------------------------------------|

Bridge
e|---------------------------------------------------------------------------|
B|---------------------------------------------------------------------------|
G|---------------------------10-10-10-10-10-10-10-10-9-9-9-9-9-9-9-9-9-9-9-9-|
D|---10-10-10-10-10-10-10-10-10-10-10-10-10-10-10-10-9-9-9-9-9-9-9-9-9-9-9-9-|
A|---10-10-10-10-10-10-10-10-8--8--8--8--8--8--8--8--7-7-7-7-7-7-7-7-7-7-7-7-|
E|---8--8--8--8--8--8--8--8--------------------------------------------------|

e|---------------------------------------------------------------------------|
B|---------------------------------------------------------------------------|
G|---9-9-9-9-------------------------10-10-10-10-10-10-10-10-7-7-7-7-7-7-7-7-|
D|---9-9-9-9-10-10-10-10-10-10-10-10-10-10-10-10-10-10-10-10-7-7-7-7-7-7-7-7-|
A|---7-7-7-7-10-10-10-10-10-10-10-10-8--8--8--8--8--8--8--8--5-5-5-5-5-5-5-5-|
E|-----------8--8--8--8--8--8--8--8------------------------------------------|

e|------------------------Play 2 times---------------------------------------|
B|---------------------------------------------------------------------------|
G|---7-7-7-7-7-7-7-7---------------------------------------------------------|
D|---7-7-7-7-7-7-7-7---------------------------------------------------------|
A|---5-5-5-5-5-5-5-5---------------------------------------------------------|
E|---------------------------------------------------------------------------|

Post a comment and rate!

************************************

| /   slide up
| \   slide down
| h   hammer-on
| p   pull-off
| ~   vibrato
| +   harmonic
| x   Mute note
| b   Bend
| pb  Pre-bend
| br  Bend release
| pbr Pre-bend release
| brb Bend release bend

************************************
Tap to rate this tab
# A B C D E F G H I J K L M N O P Q R S T U V W X Y Z